ISO-10303-21;
HEADER;
/* Generated by software containing ST-Developer
 * from STEP Tools, Inc. (www.steptools.com) 
 */

FILE_DESCRIPTION(
/* description */ ('Abstandshalter 3mm f\X\FCr Klemmblock'),
/* implementation_level */ '2;1');

FILE_NAME(
/* name */ 
'T:\\Produktinformationen\\MT\\I40\\3D-Files I40\\Klemmbl\X\F6cke\\205
615151 Abstandshalter 3mm f\X\FCr Klemmblock.stp',
/* time_stamp */ '2019-10-21T14:29:58+02:00',
/* author */ ('wheldmann'),
/* organization */ (''),
/* preprocessor_version */ 'ST-DEVELOPER v17.2',
/* originating_system */ 'Autodesk Inventor 2019',
/* authorisation */ ' ');

FILE_SCHEMA (('AUTOMOTIVE_DESIGN { 1 0 10303 214 3 1 1 }'));
ENDSEC;

DATA;
#10=MECHANICAL_DESIGN_GEOMETRIC_PRESENTATION_REPRESENTATION('',(#13),#599);
#11=SHAPE_REPRESENTATION_RELATIONSHIP('SRR','None',#606,#12);
#12=ADVANCED_BREP_SHAPE_REPRESENTATION('',(#14),#598);
#13=STYLED_ITEM('',(#615),#14);
#14=MANIFOLD_SOLID_BREP('Volumenk\X\F6rper2',#337);
#15=FACE_BOUND('',#112,.T.);
#16=FACE_BOUND('',#113,.T.);
#17=FACE_BOUND('',#114,.T.);
#18=FACE_BOUND('',#116,.T.);
#19=LINE('',#507,#45);
#20=LINE('',#514,#46);
#21=LINE('',#516,#47);
#22=LINE('',#518,#48);
#23=LINE('',#519,#49);
#24=LINE('',#524,#50);
#25=LINE('',#528,#51);
#26=LINE('',#530,#52);
#27=LINE('',#531,#53);
#28=LINE('',#536,#54);
#29=LINE('',#540,#55);
#30=LINE('',#542,#56);
#31=LINE('',#543,#57);
#32=LINE('',#548,#58);
#33=LINE('',#552,#59);
#34=LINE('',#554,#60);
#35=LINE('',#555,#61);
#36=LINE('',#564,#62);
#37=LINE('',#567,#63);
#38=LINE('',#570,#64);
#39=LINE('',#572,#65);
#40=LINE('',#573,#66);
#41=LINE('',#579,#67);
#42=LINE('',#581,#68);
#43=LINE('',#582,#69);
#44=LINE('',#593,#70);
#45=VECTOR('',#405,1.);
#46=VECTOR('',#412,1000.);
#47=VECTOR('',#413,1000.);
#48=VECTOR('',#414,1000.);
#49=VECTOR('',#415,1000.);
#50=VECTOR('',#420,1000.);
#51=VECTOR('',#425,1000.);
#52=VECTOR('',#426,1000.);
#53=VECTOR('',#427,1000.);
#54=VECTOR('',#432,1000.);
#55=VECTOR('',#437,1000.);
#56=VECTOR('',#438,1000.);
#57=VECTOR('',#439,1000.);
#58=VECTOR('',#444,1000.);
#59=VECTOR('',#449,1000.);
#60=VECTOR('',#450,1000.);
#61=VECTOR('',#451,1000.);
#62=VECTOR('',#462,1000.);
#63=VECTOR('',#465,1000.);
#64=VECTOR('',#468,1000.);
#65=VECTOR('',#469,1000.);
#66=VECTOR('',#470,1000.);
#67=VECTOR('',#477,1000.);
#68=VECTOR('',#480,1000.);
#69=VECTOR('',#481,1000.);
#70=VECTOR('',#494,1.);
#71=CYLINDRICAL_SURFACE('',#360,1.);
#72=CYLINDRICAL_SURFACE('',#364,1.5);
#73=CYLINDRICAL_SURFACE('',#368,1.5);
#74=CYLINDRICAL_SURFACE('',#372,1.5);
#75=CYLINDRICAL_SURFACE('',#376,1.5);
#76=CYLINDRICAL_SURFACE('',#379,2.25);
#77=CYLINDRICAL_SURFACE('',#383,2.25);
#78=CYLINDRICAL_SURFACE('',#391,1.);
#79=FACE_OUTER_BOUND('',#97,.T.);
#80=FACE_OUTER_BOUND('',#98,.T.);
#81=FACE_OUTER_BOUND('',#99,.T.);
#82=FACE_OUTER_BOUND('',#100,.T.);
#83=FACE_OUTER_BOUND('',#101,.T.);
#84=FACE_OUTER_BOUND('',#102,.T.);
#85=FACE_OUTER_BOUND('',#103,.T.);
#86=FACE_OUTER_BOUND('',#104,.T.);
#87=FACE_OUTER_BOUND('',#105,.T.);
#88=FACE_OUTER_BOUND('',#106,.T.);
#89=FACE_OUTER_BOUND('',#107,.T.);
#90=FACE_OUTER_BOUND('',#108,.T.);
#91=FACE_OUTER_BOUND('',#109,.T.);
#92=FACE_OUTER_BOUND('',#110,.T.);
#93=FACE_OUTER_BOUND('',#111,.T.);
#94=FACE_OUTER_BOUND('',#115,.T.);
#95=FACE_OUTER_BOUND('',#117,.T.);
#96=FACE_OUTER_BOUND('',#118,.T.);
#97=EDGE_LOOP('',(#217,#218));
#98=EDGE_LOOP('',(#219,#220,#221,#222,#223,#224));
#99=EDGE_LOOP('',(#225,#226,#227,#228));
#100=EDGE_LOOP('',(#229,#230,#231,#232));
#101=EDGE_LOOP('',(#233,#234,#235,#236));
#102=EDGE_LOOP('',(#237,#238,#239,#240));
#103=EDGE_LOOP('',(#241,#242,#243,#244));
#104=EDGE_LOOP('',(#245,#246,#247,#248));
#105=EDGE_LOOP('',(#249,#250,#251,#252));
#106=EDGE_LOOP('',(#253,#254,#255,#256));
#107=EDGE_LOOP('',(#257,#258,#259,#260));
#108=EDGE_LOOP('',(#261,#262,#263,#264));
#109=EDGE_LOOP('',(#265,#266,#267,#268));
#110=EDGE_LOOP('',(#269,#270,#271,#272));
#111=EDGE_LOOP('',(#273,#274,#275,#276,#277,#278,#279,#280));
#112=EDGE_LOOP('',(#281,#282));
#113=EDGE_LOOP('',(#283,#284));
#114=EDGE_LOOP('',(#285,#286,#287,#288));
#115=EDGE_LOOP('',(#289,#290,#291,#292,#293,#294,#295,#296));
#116=EDGE_LOOP('',(#297,#298,#299,#300));
#117=EDGE_LOOP('',(#301,#302,#303,#304,#305,#306));
#118=EDGE_LOOP('',(#307,#308));
#119=CIRCLE('',#358,1.);
#120=CIRCLE('',#359,1.);
#121=CIRCLE('',#361,1.);
#122=CIRCLE('',#362,1.);
#123=CIRCLE('',#365,1.5);
#124=CIRCLE('',#366,1.5);
#125=CIRCLE('',#369,1.5);
#126=CIRCLE('',#370,1.5);
#127=CIRCLE('',#373,1.5);
#128=CIRCLE('',#374,1.5);
#129=CIRCLE('',#377,1.5);
#130=CIRCLE('',#378,1.5);
#131=CIRCLE('',#380,2.25);
#132=CIRCLE('',#381,2.25);
#133=CIRCLE('',#384,2.25);
#134=CIRCLE('',#385,2.25);
#135=CIRCLE('',#388,1.);
#136=CIRCLE('',#389,1.);
#137=CIRCLE('',#392,1.);
#138=CIRCLE('',#393,1.);
#139=VERTEX_POINT('',#501);
#140=VERTEX_POINT('',#502);
#141=VERTEX_POINT('',#506);
#142=VERTEX_POINT('',#508);
#143=VERTEX_POINT('',#512);
#144=VERTEX_POINT('',#513);
#145=VERTEX_POINT('',#515);
#146=VERTEX_POINT('',#517);
#147=VERTEX_POINT('',#521);
#148=VERTEX_POINT('',#523);
#149=VERTEX_POINT('',#527);
#150=VERTEX_POINT('',#529);
#151=VERTEX_POINT('',#533);
#152=VERTEX_POINT('',#535);
#153=VERTEX_POINT('',#539);
#154=VERTEX_POINT('',#541);
#155=VERTEX_POINT('',#545);
#156=VERTEX_POINT('',#547);
#157=VERTEX_POINT('',#551);
#158=VERTEX_POINT('',#553);
#159=VERTEX_POINT('',#560);
#160=VERTEX_POINT('',#561);
#161=VERTEX_POINT('',#563);
#162=VERTEX_POINT('',#565);
#163=VERTEX_POINT('',#569);
#164=VERTEX_POINT('',#571);
#165=VERTEX_POINT('',#575);
#166=VERTEX_POINT('',#577);
#167=VERTEX_POINT('',#584);
#168=VERTEX_POINT('',#585);
#169=VERTEX_POINT('',#590);
#170=VERTEX_POINT('',#591);
#171=EDGE_CURVE('',#139,#140,#119,.T.);
#172=EDGE_CURVE('',#140,#139,#120,.T.);
#173=EDGE_CURVE('',#140,#141,#19,.T.);
#174=EDGE_CURVE('',#142,#141,#121,.T.);
#175=EDGE_CURVE('',#141,#142,#122,.T.);
#176=EDGE_CURVE('',#143,#144,#20,.T.);
#177=EDGE_CURVE('',#145,#144,#21,.T.);
#178=EDGE_CURVE('',#146,#145,#22,.T.);
#179=EDGE_CURVE('',#146,#143,#23,.T.);
#180=EDGE_CURVE('',#144,#147,#123,.T.);
#181=EDGE_CURVE('',#148,#147,#24,.T.);
#182=EDGE_CURVE('',#145,#148,#124,.T.);
#183=EDGE_CURVE('',#147,#149,#25,.T.);
#184=EDGE_CURVE('',#150,#149,#26,.T.);
#185=EDGE_CURVE('',#148,#150,#27,.T.);
#186=EDGE_CURVE('',#149,#151,#125,.T.);
#187=EDGE_CURVE('',#152,#151,#28,.T.);
#188=EDGE_CURVE('',#150,#152,#126,.T.);
#189=EDGE_CURVE('',#151,#153,#29,.T.);
#190=EDGE_CURVE('',#154,#153,#30,.T.);
#191=EDGE_CURVE('',#152,#154,#31,.T.);
#192=EDGE_CURVE('',#153,#155,#127,.T.);
#193=EDGE_CURVE('',#156,#155,#32,.T.);
#194=EDGE_CURVE('',#154,#156,#128,.T.);
#195=EDGE_CURVE('',#155,#157,#33,.T.);
#196=EDGE_CURVE('',#158,#157,#34,.T.);
#197=EDGE_CURVE('',#156,#158,#35,.T.);
#198=EDGE_CURVE('',#157,#143,#129,.T.);
#199=EDGE_CURVE('',#158,#146,#130,.T.);
#200=EDGE_CURVE('',#159,#160,#131,.T.);
#201=EDGE_CURVE('',#161,#159,#36,.T.);
#202=EDGE_CURVE('',#161,#162,#132,.T.);
#203=EDGE_CURVE('',#162,#160,#37,.T.);
#204=EDGE_CURVE('',#160,#163,#38,.T.);
#205=EDGE_CURVE('',#162,#164,#39,.T.);
#206=EDGE_CURVE('',#164,#163,#40,.T.);
#207=EDGE_CURVE('',#163,#165,#133,.T.);
#208=EDGE_CURVE('',#164,#166,#134,.T.);
#209=EDGE_CURVE('',#166,#165,#41,.T.);
#210=EDGE_CURVE('',#165,#159,#42,.T.);
#211=EDGE_CURVE('',#166,#161,#43,.T.);
#212=EDGE_CURVE('',#167,#168,#135,.T.);
#213=EDGE_CURVE('',#168,#167,#136,.T.);
#214=EDGE_CURVE('',#169,#170,#137,.T.);
#215=EDGE_CURVE('',#170,#168,#44,.T.);
#216=EDGE_CURVE('',#170,#169,#138,.T.);
#217=ORIENTED_EDGE('',*,*,#171,.F.);
#218=ORIENTED_EDGE('',*,*,#172,.F.);
#219=ORIENTED_EDGE('',*,*,#171,.T.);
#220=ORIENTED_EDGE('',*,*,#173,.T.);
#221=ORIENTED_EDGE('',*,*,#174,.F.);
#222=ORIENTED_EDGE('',*,*,#175,.F.);
#223=ORIENTED_EDGE('',*,*,#173,.F.);
#224=ORIENTED_EDGE('',*,*,#172,.T.);
#225=ORIENTED_EDGE('',*,*,#176,.T.);
#226=ORIENTED_EDGE('',*,*,#177,.F.);
#227=ORIENTED_EDGE('',*,*,#178,.F.);
#228=ORIENTED_EDGE('',*,*,#179,.T.);
#229=ORIENTED_EDGE('',*,*,#180,.T.);
#230=ORIENTED_EDGE('',*,*,#181,.F.);
#231=ORIENTED_EDGE('',*,*,#182,.F.);
#232=ORIENTED_EDGE('',*,*,#177,.T.);
#233=ORIENTED_EDGE('',*,*,#183,.T.);
#234=ORIENTED_EDGE('',*,*,#184,.F.);
#235=ORIENTED_EDGE('',*,*,#185,.F.);
#236=ORIENTED_EDGE('',*,*,#181,.T.);
#237=ORIENTED_EDGE('',*,*,#186,.T.);
#238=ORIENTED_EDGE('',*,*,#187,.F.);
#239=ORIENTED_EDGE('',*,*,#188,.F.);
#240=ORIENTED_EDGE('',*,*,#184,.T.);
#241=ORIENTED_EDGE('',*,*,#189,.T.);
#242=ORIENTED_EDGE('',*,*,#190,.F.);
#243=ORIENTED_EDGE('',*,*,#191,.F.);
#244=ORIENTED_EDGE('',*,*,#187,.T.);
#245=ORIENTED_EDGE('',*,*,#192,.T.);
#246=ORIENTED_EDGE('',*,*,#193,.F.);
#247=ORIENTED_EDGE('',*,*,#194,.F.);
#248=ORIENTED_EDGE('',*,*,#190,.T.);
#249=ORIENTED_EDGE('',*,*,#195,.T.);
#250=ORIENTED_EDGE('',*,*,#196,.F.);
#251=ORIENTED_EDGE('',*,*,#197,.F.);
#252=ORIENTED_EDGE('',*,*,#193,.T.);
#253=ORIENTED_EDGE('',*,*,#198,.T.);
#254=ORIENTED_EDGE('',*,*,#179,.F.);
#255=ORIENTED_EDGE('',*,*,#199,.F.);
#256=ORIENTED_EDGE('',*,*,#196,.T.);
#257=ORIENTED_EDGE('',*,*,#200,.F.);
#258=ORIENTED_EDGE('',*,*,#201,.F.);
#259=ORIENTED_EDGE('',*,*,#202,.T.);
#260=ORIENTED_EDGE('',*,*,#203,.T.);
#261=ORIENTED_EDGE('',*,*,#204,.F.);
#262=ORIENTED_EDGE('',*,*,#203,.F.);
#263=ORIENTED_EDGE('',*,*,#205,.T.);
#264=ORIENTED_EDGE('',*,*,#206,.T.);
#265=ORIENTED_EDGE('',*,*,#207,.F.);
#266=ORIENTED_EDGE('',*,*,#206,.F.);
#267=ORIENTED_EDGE('',*,*,#208,.T.);
#268=ORIENTED_EDGE('',*,*,#209,.T.);
#269=ORIENTED_EDGE('',*,*,#210,.F.);
#270=ORIENTED_EDGE('',*,*,#209,.F.);
#271=ORIENTED_EDGE('',*,*,#211,.T.);
#272=ORIENTED_EDGE('',*,*,#201,.T.);
#273=ORIENTED_EDGE('',*,*,#176,.F.);
#274=ORIENTED_EDGE('',*,*,#198,.F.);
#275=ORIENTED_EDGE('',*,*,#195,.F.);
#276=ORIENTED_EDGE('',*,*,#192,.F.);
#277=ORIENTED_EDGE('',*,*,#189,.F.);
#278=ORIENTED_EDGE('',*,*,#186,.F.);
#279=ORIENTED_EDGE('',*,*,#183,.F.);
#280=ORIENTED_EDGE('',*,*,#180,.F.);
#281=ORIENTED_EDGE('',*,*,#174,.T.);
#282=ORIENTED_EDGE('',*,*,#175,.T.);
#283=ORIENTED_EDGE('',*,*,#212,.T.);
#284=ORIENTED_EDGE('',*,*,#213,.T.);
#285=ORIENTED_EDGE('',*,*,#210,.T.);
#286=ORIENTED_EDGE('',*,*,#200,.T.);
#287=ORIENTED_EDGE('',*,*,#204,.T.);
#288=ORIENTED_EDGE('',*,*,#207,.T.);
#289=ORIENTED_EDGE('',*,*,#178,.T.);
#290=ORIENTED_EDGE('',*,*,#182,.T.);
#291=ORIENTED_EDGE('',*,*,#185,.T.);
#292=ORIENTED_EDGE('',*,*,#188,.T.);
#293=ORIENTED_EDGE('',*,*,#191,.T.);
#294=ORIENTED_EDGE('',*,*,#194,.T.);
#295=ORIENTED_EDGE('',*,*,#197,.T.);
#296=ORIENTED_EDGE('',*,*,#199,.T.);
#297=ORIENTED_EDGE('',*,*,#211,.F.);
#298=ORIENTED_EDGE('',*,*,#208,.F.);
#299=ORIENTED_EDGE('',*,*,#205,.F.);
#300=ORIENTED_EDGE('',*,*,#202,.F.);
#301=ORIENTED_EDGE('',*,*,#214,.T.);
#302=ORIENTED_EDGE('',*,*,#215,.T.);
#303=ORIENTED_EDGE('',*,*,#212,.F.);
#304=ORIENTED_EDGE('',*,*,#213,.F.);
#305=ORIENTED_EDGE('',*,*,#215,.F.);
#306=ORIENTED_EDGE('',*,*,#216,.T.);
#307=ORIENTED_EDGE('',*,*,#214,.F.);
#308=ORIENTED_EDGE('',*,*,#216,.F.);
#309=PLANE('',#357);
#310=PLANE('',#363);
#311=PLANE('',#367);
#312=PLANE('',#371);
#313=PLANE('',#375);
#314=PLANE('',#382);
#315=PLANE('',#386);
#316=PLANE('',#387);
#317=PLANE('',#390);
#318=PLANE('',#394);
#319=ADVANCED_FACE('',(#79),#309,.F.);
#320=ADVANCED_FACE('',(#80),#71,.T.);
#321=ADVANCED_FACE('',(#81),#310,.F.);
#322=ADVANCED_FACE('',(#82),#72,.T.);
#323=ADVANCED_FACE('',(#83),#311,.F.);
#324=ADVANCED_FACE('',(#84),#73,.T.);
#325=ADVANCED_FACE('',(#85),#312,.F.);
#326=ADVANCED_FACE('',(#86),#74,.T.);
#327=ADVANCED_FACE('',(#87),#313,.F.);
#328=ADVANCED_FACE('',(#88),#75,.T.);
#329=ADVANCED_FACE('',(#89),#76,.F.);
#330=ADVANCED_FACE('',(#90),#314,.T.);
#331=ADVANCED_FACE('',(#91),#77,.F.);
#332=ADVANCED_FACE('',(#92),#315,.T.);
#333=ADVANCED_FACE('',(#93,#15,#16,#17),#316,.F.);
#334=ADVANCED_FACE('',(#94,#18),#317,.T.);
#335=ADVANCED_FACE('',(#95),#78,.T.);
#336=ADVANCED_FACE('',(#96),#318,.F.);
#337=CLOSED_SHELL('',(#319,#320,#321,#322,#323,#324,#325,#326,#327,#328,
#329,#330,#331,#332,#333,#334,#335,#336));
#338=DERIVED_UNIT_ELEMENT(#340,1.);
#339=DERIVED_UNIT_ELEMENT(#601,3.);
#340=(
MASS_UNIT()
NAMED_UNIT(*)
SI_UNIT($,.GRAM.)
);
#341=DERIVED_UNIT((#338,#339));
#342=MEASURE_REPRESENTATION_ITEM('density measure',
POSITIVE_RATIO_MEASURE(1.14),#341);
#343=PROPERTY_DEFINITION_REPRESENTATION(#348,#345);
#344=PROPERTY_DEFINITION_REPRESENTATION(#349,#346);
#345=REPRESENTATION('material name',(#347),#598);
#346=REPRESENTATION('density',(#342),#598);
#347=DESCRIPTIVE_REPRESENTATION_ITEM('1102 (PA 6)','1102 (PA 6)');
#348=PROPERTY_DEFINITION('material property','material name',#608);
#349=PROPERTY_DEFINITION('material property','density of part',#608);
#350=DATE_TIME_ROLE('creation_date');
#351=APPLIED_DATE_AND_TIME_ASSIGNMENT(#352,#350,(#608));
#352=DATE_AND_TIME(#353,#354);
#353=CALENDAR_DATE(2019,21,10);
#354=LOCAL_TIME(14,2,35.,#355);
#355=COORDINATED_UNIVERSAL_TIME_OFFSET(0,0,.BEHIND.);
#356=AXIS2_PLACEMENT_3D('placement',#499,#395,#396);
#357=AXIS2_PLACEMENT_3D('',#500,#397,#398);
#358=AXIS2_PLACEMENT_3D('',#503,#399,#400);
#359=AXIS2_PLACEMENT_3D('',#504,#401,#402);
#360=AXIS2_PLACEMENT_3D('',#505,#403,#404);
#361=AXIS2_PLACEMENT_3D('',#509,#406,#407);
#362=AXIS2_PLACEMENT_3D('',#510,#408,#409);
#363=AXIS2_PLACEMENT_3D('',#511,#410,#411);
#364=AXIS2_PLACEMENT_3D('',#520,#416,#417);
#365=AXIS2_PLACEMENT_3D('',#522,#418,#419);
#366=AXIS2_PLACEMENT_3D('',#525,#421,#422);
#367=AXIS2_PLACEMENT_3D('',#526,#423,#424);
#368=AXIS2_PLACEMENT_3D('',#532,#428,#429);
#369=AXIS2_PLACEMENT_3D('',#534,#430,#431);
#370=AXIS2_PLACEMENT_3D('',#537,#433,#434);
#371=AXIS2_PLACEMENT_3D('',#538,#435,#436);
#372=AXIS2_PLACEMENT_3D('',#544,#440,#441);
#373=AXIS2_PLACEMENT_3D('',#546,#442,#443);
#374=AXIS2_PLACEMENT_3D('',#549,#445,#446);
#375=AXIS2_PLACEMENT_3D('',#550,#447,#448);
#376=AXIS2_PLACEMENT_3D('',#556,#452,#453);
#377=AXIS2_PLACEMENT_3D('',#557,#454,#455);
#378=AXIS2_PLACEMENT_3D('',#558,#456,#457);
#379=AXIS2_PLACEMENT_3D('',#559,#458,#459);
#380=AXIS2_PLACEMENT_3D('',#562,#460,#461);
#381=AXIS2_PLACEMENT_3D('',#566,#463,#464);
#382=AXIS2_PLACEMENT_3D('',#568,#466,#467);
#383=AXIS2_PLACEMENT_3D('',#574,#471,#472);
#384=AXIS2_PLACEMENT_3D('',#576,#473,#474);
#385=AXIS2_PLACEMENT_3D('',#578,#475,#476);
#386=AXIS2_PLACEMENT_3D('',#580,#478,#479);
#387=AXIS2_PLACEMENT_3D('',#583,#482,#483);
#388=AXIS2_PLACEMENT_3D('',#586,#484,#485);
#389=AXIS2_PLACEMENT_3D('',#587,#486,#487);
#390=AXIS2_PLACEMENT_3D('',#588,#488,#489);
#391=AXIS2_PLACEMENT_3D('',#589,#490,#491);
#392=AXIS2_PLACEMENT_3D('',#592,#492,#493);
#393=AXIS2_PLACEMENT_3D('',#594,#495,#496);
#394=AXIS2_PLACEMENT_3D('',#595,#497,#498);
#395=DIRECTION('axis',(0.,0.,1.));
#396=DIRECTION('refdir',(1.,0.,0.));
#397=DIRECTION('center_axis',(-2.22044604925031E-16,-1.,0.));
#398=DIRECTION('ref_axis',(-1.,2.22044604925031E-16,2.22044604925031E-16));
#399=DIRECTION('center_axis',(-2.22044604925031E-16,-1.,0.));
#400=DIRECTION('ref_axis',(-1.,2.22044604925031E-16,2.22044604925031E-16));
#401=DIRECTION('center_axis',(-2.22044604925031E-16,-1.,0.));
#402=DIRECTION('ref_axis',(-1.,2.22044604925031E-16,2.22044604925031E-16));
#403=DIRECTION('center_axis',(2.22044604925031E-16,1.,0.));
#404=DIRECTION('ref_axis',(-1.,2.22044604925031E-16,2.22044604925031E-16));
#405=DIRECTION('',(-2.22044604925031E-16,-1.,0.));
#406=DIRECTION('center_axis',(-2.22044604925031E-16,-1.,0.));
#407=DIRECTION('ref_axis',(-1.,2.22044604925031E-16,2.22044604925031E-16));
#408=DIRECTION('center_axis',(-2.22044604925031E-16,-1.,0.));
#409=DIRECTION('ref_axis',(-1.,2.22044604925031E-16,2.22044604925031E-16));
#410=DIRECTION('center_axis',(-1.,2.22044604925031E-16,2.22044604925031E-16));
#411=DIRECTION('ref_axis',(2.22044604925031E-16,1.,0.));
#412=DIRECTION('',(2.22044604925031E-16,-4.93038065763132E-32,1.));
#413=DIRECTION('',(2.22044604925031E-16,1.,0.));
#414=DIRECTION('',(2.22044604925031E-16,-4.93038065763132E-32,1.));
#415=DIRECTION('',(2.22044604925031E-16,1.,0.));
#416=DIRECTION('center_axis',(-2.22044604925031E-16,-1.,0.));
#417=DIRECTION('ref_axis',(1.,-2.22044604925031E-16,-2.22044604925031E-16));
#418=DIRECTION('center_axis',(-2.22044604925031E-16,-1.,0.));
#419=DIRECTION('ref_axis',(-1.,2.22044604925031E-16,2.22044604925031E-16));
#420=DIRECTION('',(2.22044604925031E-16,1.,0.));
#421=DIRECTION('center_axis',(-2.22044604925031E-16,-1.,0.));
#422=DIRECTION('ref_axis',(-1.,2.22044604925031E-16,2.22044604925031E-16));
#423=DIRECTION('center_axis',(-2.22044604925031E-16,4.93038065763132E-32,
-1.));
#424=DIRECTION('ref_axis',(1.,-2.22044604925031E-16,-2.22044604925031E-16));
#425=DIRECTION('',(-1.,2.22044604925031E-16,2.22044604925031E-16));
#426=DIRECTION('',(2.22044604925031E-16,1.,0.));
#427=DIRECTION('',(-1.,2.22044604925031E-16,2.22044604925031E-16));
#428=DIRECTION('center_axis',(-2.22044604925031E-16,-1.,0.));
#429=DIRECTION('ref_axis',(1.,-2.22044604925031E-16,-2.22044604925031E-16));
#430=DIRECTION('center_axis',(-2.22044604925031E-16,-1.,0.));
#431=DIRECTION('ref_axis',(-1.,2.22044604925031E-16,2.22044604925031E-16));
#432=DIRECTION('',(2.22044604925031E-16,1.,0.));
#433=DIRECTION('center_axis',(-2.22044604925031E-16,-1.,0.));
#434=DIRECTION('ref_axis',(-1.,2.22044604925031E-16,2.22044604925031E-16));
#435=DIRECTION('center_axis',(1.,-2.22044604925031E-16,-2.22044604925031E-16));
#436=DIRECTION('ref_axis',(-2.22044604925031E-16,-1.,0.));
#437=DIRECTION('',(-2.22044604925031E-16,4.93038065763132E-32,-1.));
#438=DIRECTION('',(2.22044604925031E-16,1.,0.));
#439=DIRECTION('',(-2.22044604925031E-16,4.93038065763132E-32,-1.));
#440=DIRECTION('center_axis',(-2.22044604925031E-16,-1.,0.));
#441=DIRECTION('ref_axis',(1.,-2.22044604925031E-16,-2.22044604925031E-16));
#442=DIRECTION('center_axis',(-2.22044604925031E-16,-1.,0.));
#443=DIRECTION('ref_axis',(-1.,2.22044604925031E-16,2.22044604925031E-16));
#444=DIRECTION('',(2.22044604925031E-16,1.,0.));
#445=DIRECTION('center_axis',(-2.22044604925031E-16,-1.,0.));
#446=DIRECTION('ref_axis',(-1.,2.22044604925031E-16,2.22044604925031E-16));
#447=DIRECTION('center_axis',(2.22044604925031E-16,-4.93038065763132E-32,
1.));
#448=DIRECTION('ref_axis',(-1.,2.22044604925031E-16,2.22044604925031E-16));
#449=DIRECTION('',(1.,-2.22044604925031E-16,-2.22044604925031E-16));
#450=DIRECTION('',(2.22044604925031E-16,1.,0.));
#451=DIRECTION('',(1.,-2.22044604925031E-16,-2.22044604925031E-16));
#452=DIRECTION('center_axis',(-2.22044604925031E-16,-1.,0.));
#453=DIRECTION('ref_axis',(1.,-2.22044604925031E-16,-2.22044604925031E-16));
#454=DIRECTION('center_axis',(-2.22044604925031E-16,-1.,0.));
#455=DIRECTION('ref_axis',(-1.,2.22044604925031E-16,2.22044604925031E-16));
#456=DIRECTION('center_axis',(-2.22044604925031E-16,-1.,0.));
#457=DIRECTION('ref_axis',(-1.,2.22044604925031E-16,2.22044604925031E-16));
#458=DIRECTION('center_axis',(-2.22044604925031E-16,-1.,0.));
#459=DIRECTION('ref_axis',(1.,-2.22044604925031E-16,-2.22044604925031E-16));
#460=DIRECTION('center_axis',(-2.22044604925031E-16,-1.,0.));
#461=DIRECTION('ref_axis',(-1.,2.22044604925031E-16,2.22044604925031E-16));
#462=DIRECTION('',(2.22044604925031E-16,1.,0.));
#463=DIRECTION('center_axis',(-2.22044604925031E-16,-1.,0.));
#464=DIRECTION('ref_axis',(-1.,2.22044604925031E-16,2.22044604925031E-16));
#465=DIRECTION('',(2.22044604925031E-16,1.,0.));
#466=DIRECTION('center_axis',(1.,-2.22044604925031E-16,-2.22044604925031E-16));
#467=DIRECTION('ref_axis',(-2.22044604925031E-16,-1.,0.));
#468=DIRECTION('',(-2.22044604925031E-16,4.93038065763132E-32,-1.));
#469=DIRECTION('',(-2.22044604925031E-16,4.93038065763132E-32,-1.));
#470=DIRECTION('',(2.22044604925031E-16,1.,0.));
#471=DIRECTION('center_axis',(-2.22044604925031E-16,-1.,0.));
#472=DIRECTION('ref_axis',(1.,-2.22044604925031E-16,-2.22044604925031E-16));
#473=DIRECTION('center_axis',(-2.22044604925031E-16,-1.,0.));
#474=DIRECTION('ref_axis',(-1.,2.22044604925031E-16,2.22044604925031E-16));
#475=DIRECTION('center_axis',(-2.22044604925031E-16,-1.,0.));
#476=DIRECTION('ref_axis',(-1.,2.22044604925031E-16,2.22044604925031E-16));
#477=DIRECTION('',(2.22044604925031E-16,1.,0.));
#478=DIRECTION('center_axis',(-1.,2.22044604925031E-16,2.22044604925031E-16));
#479=DIRECTION('ref_axis',(2.22044604925031E-16,1.,0.));
#480=DIRECTION('',(2.22044604925031E-16,-4.93038065763132E-32,1.));
#481=DIRECTION('',(2.22044604925031E-16,-4.93038065763132E-32,1.));
#482=DIRECTION('center_axis',(-2.22044604925031E-16,-1.,0.));
#483=DIRECTION('ref_axis',(-1.,2.22044604925031E-16,2.22044604925031E-16));
#484=DIRECTION('center_axis',(-2.22044604925031E-16,-1.,0.));
#485=DIRECTION('ref_axis',(-1.,2.22044604925031E-16,2.22044604925031E-16));
#486=DIRECTION('center_axis',(-2.22044604925031E-16,-1.,0.));
#487=DIRECTION('ref_axis',(-1.,2.22044604925031E-16,2.22044604925031E-16));
#488=DIRECTION('center_axis',(-2.22044604925031E-16,-1.,0.));
#489=DIRECTION('ref_axis',(-1.,2.22044604925031E-16,2.22044604925031E-16));
#490=DIRECTION('center_axis',(2.22044604925031E-16,1.,0.));
#491=DIRECTION('ref_axis',(-1.,2.22044604925031E-16,2.22044604925031E-16));
#492=DIRECTION('center_axis',(-2.22044604925031E-16,-1.,0.));
#493=DIRECTION('ref_axis',(-1.,2.22044604925031E-16,2.22044604925031E-16));
#494=DIRECTION('',(-2.22044604925031E-16,-1.,0.));
#495=DIRECTION('center_axis',(-2.22044604925031E-16,-1.,0.));
#496=DIRECTION('ref_axis',(-1.,2.22044604925031E-16,2.22044604925031E-16));
#497=DIRECTION('center_axis',(-2.22044604925031E-16,-1.,0.));
#498=DIRECTION('ref_axis',(-1.,2.22044604925031E-16,2.22044604925031E-16));
#499=CARTESIAN_POINT('',(0.,0.,0.));
#500=CARTESIAN_POINT('Origin',(-4.5,2.,1.11022302462516E-15));
#501=CARTESIAN_POINT('',(-5.5,2.,1.11022302462516E-15));
#502=CARTESIAN_POINT('',(-3.5,2.,7.65713739785394E-16));
#503=CARTESIAN_POINT('Origin',(-4.5,2.,1.11022302462516E-15));
#504=CARTESIAN_POINT('Origin',(-4.5,2.,1.11022302462516E-15));
#505=CARTESIAN_POINT('Origin',(-4.5,2.,1.11022302462516E-15));
#506=CARTESIAN_POINT('',(-3.5,5.55111512312578E-16,7.65713739785394E-16));
#507=CARTESIAN_POINT('',(-3.5,2.,7.65713739785394E-16));
#508=CARTESIAN_POINT('',(-5.5,1.22124532708767E-15,1.11022302462516E-15));
#509=CARTESIAN_POINT('Origin',(-4.5,9.99200722162641E-16,1.11022302462516E-15));
#510=CARTESIAN_POINT('Origin',(-4.5,9.99200722162641E-16,1.11022302462516E-15));
#511=CARTESIAN_POINT('Origin',(6.25,-3.,-6.5));
#512=CARTESIAN_POINT('',(6.25,-1.38777878078144E-15,-6.5));
#513=CARTESIAN_POINT('',(6.25,-1.38777878078145E-15,6.5));
#514=CARTESIAN_POINT('',(6.25,-1.38777878078144E-15,-6.5));
#515=CARTESIAN_POINT('',(6.25,-3.,6.5));
#516=CARTESIAN_POINT('',(6.25,-3.,6.5));
#517=CARTESIAN_POINT('',(6.25,-3.,-6.5));
#518=CARTESIAN_POINT('',(6.25,-3.,-6.5));
#519=CARTESIAN_POINT('',(6.25,-3.,-6.5));
#520=CARTESIAN_POINT('Origin',(4.75,-3.,6.5));
#521=CARTESIAN_POINT('',(4.75,-1.0547118733939E-15,8.));
#522=CARTESIAN_POINT('Origin',(4.75,-1.0547118733939E-15,6.5));
#523=CARTESIAN_POINT('',(4.75,-3.,8.));
#524=CARTESIAN_POINT('',(4.75,-3.,8.));
#525=CARTESIAN_POINT('Origin',(4.75,-3.,6.5));
#526=CARTESIAN_POINT('Origin',(4.75,-3.,8.));
#527=CARTESIAN_POINT('',(-4.75,1.0547118733939E-15,8.));
#528=CARTESIAN_POINT('',(4.75,-1.0547118733939E-15,8.));
#529=CARTESIAN_POINT('',(-4.75,-3.,8.));
#530=CARTESIAN_POINT('',(-4.75,-3.,8.));
#531=CARTESIAN_POINT('',(4.75,-3.,8.));
#532=CARTESIAN_POINT('Origin',(-4.75,-3.,6.5));
#533=CARTESIAN_POINT('',(-6.25,1.38777878078145E-15,6.5));
#534=CARTESIAN_POINT('Origin',(-4.75,1.0547118733939E-15,6.5));
#535=CARTESIAN_POINT('',(-6.25,-3.,6.5));
#536=CARTESIAN_POINT('',(-6.25,-3.,6.5));
#537=CARTESIAN_POINT('Origin',(-4.75,-3.,6.5));
#538=CARTESIAN_POINT('Origin',(-6.25,-3.,6.5));
#539=CARTESIAN_POINT('',(-6.25,1.38777878078145E-15,-6.5));
#540=CARTESIAN_POINT('',(-6.25,1.38777878078145E-15,6.5));
#541=CARTESIAN_POINT('',(-6.25,-3.,-6.5));
#542=CARTESIAN_POINT('',(-6.25,-3.,-6.5));
#543=CARTESIAN_POINT('',(-6.25,-3.,6.5));
#544=CARTESIAN_POINT('Origin',(-4.75,-3.,-6.5));
#545=CARTESIAN_POINT('',(-4.75,1.0547118733939E-15,-8.));
#546=CARTESIAN_POINT('Origin',(-4.75,1.0547118733939E-15,-6.5));
#547=CARTESIAN_POINT('',(-4.75,-3.,-8.));
#548=CARTESIAN_POINT('',(-4.75,-3.,-8.));
#549=CARTESIAN_POINT('Origin',(-4.75,-3.,-6.5));
#550=CARTESIAN_POINT('Origin',(-4.75,-3.,-8.));
#551=CARTESIAN_POINT('',(4.75,-1.0547118733939E-15,-8.));
#552=CARTESIAN_POINT('',(-4.75,1.0547118733939E-15,-8.));
#553=CARTESIAN_POINT('',(4.75,-3.,-8.));
#554=CARTESIAN_POINT('',(4.75,-3.,-8.));
#555=CARTESIAN_POINT('',(-4.75,-3.,-8.));
#556=CARTESIAN_POINT('Origin',(4.75,-3.,-6.5));
#557=CARTESIAN_POINT('Origin',(4.75,-1.0547118733939E-15,-6.5));
#558=CARTESIAN_POINT('Origin',(4.75,-3.,-6.5));
#559=CARTESIAN_POINT('Origin',(-1.99840144432528E-15,-3.,2.));
#560=CARTESIAN_POINT('',(2.25,-4.9960036108132E-16,2.));
#561=CARTESIAN_POINT('',(-2.25,4.99600361081321E-16,2.));
#562=CARTESIAN_POINT('Origin',(-1.33226762955019E-15,2.95822839457879E-31,
2.));
#563=CARTESIAN_POINT('',(2.25,-3.,2.));
#564=CARTESIAN_POINT('',(2.25,-3.,2.));
#565=CARTESIAN_POINT('',(-2.25,-3.,2.));
#566=CARTESIAN_POINT('Origin',(-1.99840144432528E-15,-3.,2.));
#567=CARTESIAN_POINT('',(-2.25,-3.,2.));
#568=CARTESIAN_POINT('Origin',(-2.25,-3.,2.));
#569=CARTESIAN_POINT('',(-2.25,4.99600361081321E-16,-2.));
#570=CARTESIAN_POINT('',(-2.25,4.99600361081321E-16,2.));
#571=CARTESIAN_POINT('',(-2.25,-3.,-2.));
#572=CARTESIAN_POINT('',(-2.25,-3.,2.));
#573=CARTESIAN_POINT('',(-2.25,-3.,-2.));
#574=CARTESIAN_POINT('Origin',(-2.2360585605341E-15,-3.,-2.));
#575=CARTESIAN_POINT('',(2.25,-4.9960036108132E-16,-2.));
#576=CARTESIAN_POINT('Origin',(-1.56992474575901E-15,3.48593319934089E-31,
-2.));
#577=CARTESIAN_POINT('',(2.25,-3.,-2.));
#578=CARTESIAN_POINT('Origin',(-2.2360585605341E-15,-3.,-2.));
#579=CARTESIAN_POINT('',(2.25,-3.,-2.));
#580=CARTESIAN_POINT('Origin',(2.25,-3.,-2.));
#581=CARTESIAN_POINT('',(2.25,-4.9960036108132E-16,-2.));
#582=CARTESIAN_POINT('',(2.25,-3.,-2.));
#583=CARTESIAN_POINT('Origin',(4.75,-1.0547118733939E-15,6.5));
#584=CARTESIAN_POINT('',(3.5,-7.77156117237609E-16,-1.11022302462516E-15));
#585=CARTESIAN_POINT('',(5.5,-1.11022302462516E-15,-1.45473230946493E-15));
#586=CARTESIAN_POINT('Origin',(4.5,-9.9920072216264E-16,-1.11022302462516E-15));
#587=CARTESIAN_POINT('Origin',(4.5,-9.9920072216264E-16,-1.11022302462516E-15));
#588=CARTESIAN_POINT('Origin',(4.75,-3.,6.5));
#589=CARTESIAN_POINT('Origin',(4.5,2.,-1.11022302462516E-15));
#590=CARTESIAN_POINT('',(3.5,2.,-1.11022302462516E-15));
#591=CARTESIAN_POINT('',(5.5,2.,-1.45473230946493E-15));
#592=CARTESIAN_POINT('Origin',(4.5,2.,-1.11022302462516E-15));
#593=CARTESIAN_POINT('',(5.5,2.,-1.45473230946493E-15));
#594=CARTESIAN_POINT('Origin',(4.5,2.,-1.11022302462516E-15));
#595=CARTESIAN_POINT('Origin',(4.5,2.,-1.11022302462516E-15));
#596=UNCERTAINTY_MEASURE_WITH_UNIT(LENGTH_MEASURE(0.01),#600,
'DISTANCE_ACCURACY_VALUE',
'Maximum model space distance between geometric entities at asserted c
onnectivities');
#597=UNCERTAINTY_MEASURE_WITH_UNIT(LENGTH_MEASURE(0.01),#600,
'DISTANCE_ACCURACY_VALUE',
'Maximum model space distance between geometric entities at asserted c
onnectivities');
#598=(
GEOMETRIC_REPRESENTATION_CONTEXT(3)
GLOBAL_UNCERTAINTY_ASSIGNED_CONTEXT((#596))
GLOBAL_UNIT_ASSIGNED_CONTEXT((#600,#602,#603))
REPRESENTATION_CONTEXT('','3D')
);
#599=(
GEOMETRIC_REPRESENTATION_CONTEXT(3)
GLOBAL_UNCERTAINTY_ASSIGNED_CONTEXT((#597))
GLOBAL_UNIT_ASSIGNED_CONTEXT((#600,#602,#603))
REPRESENTATION_CONTEXT('','3D')
);
#600=(
LENGTH_UNIT()
NAMED_UNIT(*)
SI_UNIT(.MILLI.,.METRE.)
);
#601=(
LENGTH_UNIT()
NAMED_UNIT(*)
SI_UNIT(.CENTI.,.METRE.)
);
#602=(
NAMED_UNIT(*)
PLANE_ANGLE_UNIT()
SI_UNIT($,.RADIAN.)
);
#603=(
NAMED_UNIT(*)
SI_UNIT($,.STERADIAN.)
SOLID_ANGLE_UNIT()
);
#604=SHAPE_DEFINITION_REPRESENTATION(#605,#606);
#605=PRODUCT_DEFINITION_SHAPE('',$,#608);
#606=SHAPE_REPRESENTATION('',(#356),#598);
#607=PRODUCT_DEFINITION_CONTEXT('part definition',#612,'design');
#608=PRODUCT_DEFINITION('205615151',
'205615151 Abstandshalter 3mm f\X\FCr Klemmblock',#609,#607);
#609=PRODUCT_DEFINITION_FORMATION('',$,#614);
#610=PRODUCT_RELATED_PRODUCT_CATEGORY(
'205615151 Abstandshalter 3mm f\X\FCr Klemmblock',
'205615151 Abstandshalter 3mm f\X\FCr Klemmblock',(#614));
#611=APPLICATION_PROTOCOL_DEFINITION('international standard',
'automotive_design',2009,#612);
#612=APPLICATION_CONTEXT(
'Core Data for Automotive Mechanical Design Process');
#613=PRODUCT_CONTEXT('part definition',#612,'mechanical');
#614=PRODUCT('205615151','205615151 Abstandshalter 3mm f\X\FCr Klemmbl
ock','Abstandshalter 3mm f\X\FCr Klemmblock',(#613));
#615=PRESENTATION_STYLE_ASSIGNMENT((#616));
#616=SURFACE_STYLE_USAGE(.BOTH.,#619);
#617=SURFACE_STYLE_RENDERING_WITH_PROPERTIES($,#623,(#618));
#618=SURFACE_STYLE_TRANSPARENT(1.);
#619=SURFACE_SIDE_STYLE('',(#620,#617));
#620=SURFACE_STYLE_FILL_AREA(#621);
#621=FILL_AREA_STYLE('',(#622));
#622=FILL_AREA_STYLE_COLOUR('',#623);
#623=COLOUR_RGB('',0.,0.,0.);
ENDSEC;
END-ISO-10303-21;
