ISO-10303-21;
HEADER;
/* Generated by software containing ST-Developer
 * from STEP Tools, Inc. (www.steptools.com) 
 */
/* OPTION: using custom renumber hook */

FILE_DESCRIPTION(
/* description */ ('STEP AP214'),
/* implementation_level */ '2;1');

FILE_NAME(
/* name */ 'CRPA43-2Z',
/* time_stamp */ '2024-08-06T11:33:37+02:00',
/* author */ ('License CC BY-ND 4.0'),
/* organization */ ('CADENAS'),
/* preprocessor_version */ 'ST-DEVELOPER v19.3',
/* originating_system */ 'PARTsolutions',
/* authorisation */ '  ');

FILE_SCHEMA (('AUTOMOTIVE_DESIGN {1 0 10303 214 3 1 1}'));
ENDSEC;

DATA;
#10=PROPERTY_DEFINITION_REPRESENTATION(#14,#12);
#11=PROPERTY_DEFINITION_REPRESENTATION(#15,#13);
#12=REPRESENTATION('',(#16),#555);
#13=REPRESENTATION('',(#17),#555);
#14=PROPERTY_DEFINITION('pmi validation property','',#560);
#15=PROPERTY_DEFINITION('pmi validation property','',#560);
#16=VALUE_REPRESENTATION_ITEM('number of annotations',COUNT_MEASURE(0.));
#17=VALUE_REPRESENTATION_ITEM('number of views',COUNT_MEASURE(0.));
#18=SHAPE_REPRESENTATION_RELATIONSHIP('','',#333,#19);
#19=ADVANCED_BREP_SHAPE_REPRESENTATION('',(#331),#555);
#20=VERTEX_LOOP('',#195);
#21=CYLINDRICAL_SURFACE('',#367,6.);
#22=CYLINDRICAL_SURFACE('',#370,2.4585);
#23=SPHERICAL_SURFACE('',#349,18.82);
#24=SPHERICAL_SURFACE('',#353,0.214999999999841);
#25=TOROIDAL_SURFACE('',#339,10.800000000002,7.);
#26=CONICAL_SURFACE('',#337,13.,1.45661994791);
#27=CONICAL_SURFACE('',#341,15.1237686108368,1.45661994791074);
#28=CONICAL_SURFACE('',#345,7.99999999999952,0.673998209173172);
#29=CONICAL_SURFACE('',#351,0.772526095354488,1.04719755119697);
#30=CONICAL_SURFACE('',#365,5.3,0.785398163397448);
#31=CONICAL_SURFACE('',#368,3.,0.785398163397448);
#32=CONICAL_SURFACE('',#372,2.4585,1.02974425867665);
#33=LINE('',#473,#51);
#34=LINE('',#476,#52);
#35=LINE('',#478,#53);
#36=LINE('',#480,#54);
#37=LINE('',#482,#55);
#38=LINE('',#484,#56);
#39=LINE('',#511,#57);
#40=LINE('',#513,#58);
#41=LINE('',#515,#59);
#42=LINE('',#517,#60);
#43=LINE('',#519,#61);
#44=LINE('',#521,#62);
#45=LINE('',#523,#63);
#46=LINE('',#525,#64);
#47=LINE('',#527,#65);
#48=LINE('',#529,#66);
#49=LINE('',#531,#67);
#50=LINE('',#533,#68);
#51=VECTOR('',#379,1000.);
#52=VECTOR('',#380,1000.);
#53=VECTOR('',#381,1000.);
#54=VECTOR('',#382,1000.);
#55=VECTOR('',#383,1000.);
#56=VECTOR('',#384,1000.);
#57=VECTOR('',#421,1000.);
#58=VECTOR('',#422,1000.);
#59=VECTOR('',#423,1000.);
#60=VECTOR('',#426,1000.);
#61=VECTOR('',#427,1000.);
#62=VECTOR('',#430,1000.);
#63=VECTOR('',#431,1000.);
#64=VECTOR('',#434,1000.);
#65=VECTOR('',#435,1000.);
#66=VECTOR('',#438,1000.);
#67=VECTOR('',#439,1000.);
#68=VECTOR('',#442,1000.);
#69=ORIENTED_EDGE('',*,*,#135,.F.);
#70=ORIENTED_EDGE('',*,*,#136,.F.);
#71=ORIENTED_EDGE('',*,*,#137,.F.);
#72=ORIENTED_EDGE('',*,*,#138,.F.);
#73=ORIENTED_EDGE('',*,*,#139,.F.);
#74=ORIENTED_EDGE('',*,*,#140,.F.);
#75=ORIENTED_EDGE('',*,*,#141,.F.);
#76=ORIENTED_EDGE('',*,*,#142,.F.);
#77=ORIENTED_EDGE('',*,*,#135,.T.);
#78=ORIENTED_EDGE('',*,*,#142,.T.);
#79=ORIENTED_EDGE('',*,*,#143,.F.);
#80=ORIENTED_EDGE('',*,*,#144,.F.);
#81=ORIENTED_EDGE('',*,*,#143,.T.);
#82=ORIENTED_EDGE('',*,*,#145,.F.);
#83=ORIENTED_EDGE('',*,*,#144,.T.);
#84=ORIENTED_EDGE('',*,*,#146,.F.);
#85=ORIENTED_EDGE('',*,*,#145,.T.);
#86=ORIENTED_EDGE('',*,*,#147,.F.);
#87=ORIENTED_EDGE('',*,*,#146,.T.);
#88=ORIENTED_EDGE('',*,*,#147,.T.);
#89=ORIENTED_EDGE('',*,*,#148,.F.);
#90=ORIENTED_EDGE('',*,*,#149,.F.);
#91=ORIENTED_EDGE('',*,*,#148,.T.);
#92=ORIENTED_EDGE('',*,*,#149,.T.);
#93=ORIENTED_EDGE('',*,*,#150,.F.);
#94=ORIENTED_EDGE('',*,*,#136,.T.);
#95=ORIENTED_EDGE('',*,*,#151,.T.);
#96=ORIENTED_EDGE('',*,*,#152,.T.);
#97=ORIENTED_EDGE('',*,*,#153,.F.);
#98=ORIENTED_EDGE('',*,*,#137,.T.);
#99=ORIENTED_EDGE('',*,*,#150,.T.);
#100=ORIENTED_EDGE('',*,*,#154,.T.);
#101=ORIENTED_EDGE('',*,*,#155,.F.);
#102=ORIENTED_EDGE('',*,*,#138,.T.);
#103=ORIENTED_EDGE('',*,*,#153,.T.);
#104=ORIENTED_EDGE('',*,*,#156,.T.);
#105=ORIENTED_EDGE('',*,*,#157,.F.);
#106=ORIENTED_EDGE('',*,*,#139,.T.);
#107=ORIENTED_EDGE('',*,*,#155,.T.);
#108=ORIENTED_EDGE('',*,*,#158,.T.);
#109=ORIENTED_EDGE('',*,*,#159,.F.);
#110=ORIENTED_EDGE('',*,*,#140,.T.);
#111=ORIENTED_EDGE('',*,*,#157,.T.);
#112=ORIENTED_EDGE('',*,*,#160,.T.);
#113=ORIENTED_EDGE('',*,*,#151,.F.);
#114=ORIENTED_EDGE('',*,*,#141,.T.);
#115=ORIENTED_EDGE('',*,*,#159,.T.);
#116=ORIENTED_EDGE('',*,*,#161,.T.);
#117=ORIENTED_EDGE('',*,*,#162,.T.);
#118=ORIENTED_EDGE('',*,*,#152,.F.);
#119=ORIENTED_EDGE('',*,*,#161,.F.);
#120=ORIENTED_EDGE('',*,*,#160,.F.);
#121=ORIENTED_EDGE('',*,*,#158,.F.);
#122=ORIENTED_EDGE('',*,*,#156,.F.);
#123=ORIENTED_EDGE('',*,*,#154,.F.);
#124=ORIENTED_EDGE('',*,*,#163,.F.);
#125=ORIENTED_EDGE('',*,*,#164,.T.);
#126=ORIENTED_EDGE('',*,*,#165,.F.);
#127=ORIENTED_EDGE('',*,*,#163,.T.);
#128=ORIENTED_EDGE('',*,*,#162,.F.);
#129=ORIENTED_EDGE('',*,*,#165,.T.);
#130=ORIENTED_EDGE('',*,*,#166,.T.);
#131=ORIENTED_EDGE('',*,*,#164,.F.);
#132=ORIENTED_EDGE('',*,*,#167,.T.);
#133=ORIENTED_EDGE('',*,*,#166,.F.);
#134=ORIENTED_EDGE('',*,*,#167,.F.);
#135=EDGE_CURVE('',#168,#168,#196,.T.);
#136=EDGE_CURVE('',#169,#170,#33,.T.);
#137=EDGE_CURVE('',#171,#169,#34,.T.);
#138=EDGE_CURVE('',#172,#171,#35,.T.);
#139=EDGE_CURVE('',#173,#172,#36,.T.);
#140=EDGE_CURVE('',#174,#173,#37,.T.);
#141=EDGE_CURVE('',#170,#174,#38,.T.);
#142=EDGE_CURVE('',#175,#175,#197,.T.);
#143=EDGE_CURVE('',#176,#176,#198,.T.);
#144=EDGE_CURVE('',#177,#177,#199,.T.);
#145=EDGE_CURVE('',#178,#178,#200,.T.);
#146=EDGE_CURVE('',#179,#179,#201,.T.);
#147=EDGE_CURVE('',#180,#180,#202,.T.);
#148=EDGE_CURVE('',#181,#181,#203,.T.);
#149=EDGE_CURVE('',#182,#182,#204,.T.);
#150=EDGE_CURVE('',#169,#183,#39,.T.);
#151=EDGE_CURVE('',#170,#184,#40,.T.);
#152=EDGE_CURVE('',#184,#183,#41,.T.);
#153=EDGE_CURVE('',#171,#185,#42,.T.);
#154=EDGE_CURVE('',#183,#185,#43,.T.);
#155=EDGE_CURVE('',#172,#186,#44,.T.);
#156=EDGE_CURVE('',#185,#186,#45,.T.);
#157=EDGE_CURVE('',#173,#187,#46,.T.);
#158=EDGE_CURVE('',#186,#187,#47,.T.);
#159=EDGE_CURVE('',#174,#188,#48,.T.);
#160=EDGE_CURVE('',#187,#188,#49,.T.);
#161=EDGE_CURVE('',#188,#184,#50,.T.);
#162=EDGE_CURVE('',#189,#189,#205,.T.);
#163=EDGE_CURVE('',#190,#190,#206,.T.);
#164=EDGE_CURVE('',#191,#191,#207,.T.);
#165=EDGE_CURVE('',#192,#192,#208,.T.);
#166=EDGE_CURVE('',#193,#193,#209,.T.);
#167=EDGE_CURVE('',#194,#194,#210,.T.);
#168=VERTEX_POINT('',#472);
#169=VERTEX_POINT('',#474);
#170=VERTEX_POINT('',#475);
#171=VERTEX_POINT('',#477);
#172=VERTEX_POINT('',#479);
#173=VERTEX_POINT('',#481);
#174=VERTEX_POINT('',#483);
#175=VERTEX_POINT('',#487);
#176=VERTEX_POINT('',#490);
#177=VERTEX_POINT('',#493);
#178=VERTEX_POINT('',#496);
#179=VERTEX_POINT('',#499);
#180=VERTEX_POINT('',#502);
#181=VERTEX_POINT('',#505);
#182=VERTEX_POINT('',#508);
#183=VERTEX_POINT('',#512);
#184=VERTEX_POINT('',#514);
#185=VERTEX_POINT('',#518);
#186=VERTEX_POINT('',#522);
#187=VERTEX_POINT('',#526);
#188=VERTEX_POINT('',#530);
#189=VERTEX_POINT('',#536);
#190=VERTEX_POINT('',#539);
#191=VERTEX_POINT('',#541);
#192=VERTEX_POINT('',#544);
#193=VERTEX_POINT('',#548);
#194=VERTEX_POINT('',#551);
#195=VERTEX_POINT('',#553);
#196=CIRCLE('',#336,13.);
#197=CIRCLE('',#338,15.1364703388789);
#198=CIRCLE('',#340,15.1237686108368);
#199=CIRCLE('',#342,13.0000000000039);
#200=CIRCLE('',#344,7.99999999999952);
#201=CIRCLE('',#346,7.80030433977151);
#202=CIRCLE('',#348,5.75030433973576);
#203=CIRCLE('',#350,0.772526095354488);
#204=CIRCLE('',#352,0.0872945004640292);
#205=CIRCLE('',#361,6.);
#206=CIRCLE('',#363,5.3);
#207=CIRCLE('',#364,3.);
#208=CIRCLE('',#366,6.);
#209=CIRCLE('',#369,2.4585);
#210=CIRCLE('',#371,2.4585);
#211=EDGE_LOOP('',(#69));
#212=EDGE_LOOP('',(#70,#71,#72,#73,#74,#75));
#213=EDGE_LOOP('',(#76));
#214=EDGE_LOOP('',(#77));
#215=EDGE_LOOP('',(#78));
#216=EDGE_LOOP('',(#79));
#217=EDGE_LOOP('',(#80));
#218=EDGE_LOOP('',(#81));
#219=EDGE_LOOP('',(#82));
#220=EDGE_LOOP('',(#83));
#221=EDGE_LOOP('',(#84));
#222=EDGE_LOOP('',(#85));
#223=EDGE_LOOP('',(#86));
#224=EDGE_LOOP('',(#87));
#225=EDGE_LOOP('',(#88));
#226=EDGE_LOOP('',(#89));
#227=EDGE_LOOP('',(#90));
#228=EDGE_LOOP('',(#91));
#229=EDGE_LOOP('',(#92));
#230=EDGE_LOOP('',(#93,#94,#95,#96));
#231=EDGE_LOOP('',(#97,#98,#99,#100));
#232=EDGE_LOOP('',(#101,#102,#103,#104));
#233=EDGE_LOOP('',(#105,#106,#107,#108));
#234=EDGE_LOOP('',(#109,#110,#111,#112));
#235=EDGE_LOOP('',(#113,#114,#115,#116));
#236=EDGE_LOOP('',(#117));
#237=EDGE_LOOP('',(#118,#119,#120,#121,#122,#123));
#238=EDGE_LOOP('',(#124));
#239=EDGE_LOOP('',(#125));
#240=EDGE_LOOP('',(#126));
#241=EDGE_LOOP('',(#127));
#242=EDGE_LOOP('',(#128));
#243=EDGE_LOOP('',(#129));
#244=EDGE_LOOP('',(#130));
#245=EDGE_LOOP('',(#131));
#246=EDGE_LOOP('',(#132));
#247=EDGE_LOOP('',(#133));
#248=EDGE_LOOP('',(#134));
#249=FACE_BOUND('',#211,.T.);
#250=FACE_BOUND('',#212,.T.);
#251=FACE_BOUND('',#213,.T.);
#252=FACE_BOUND('',#214,.T.);
#253=FACE_BOUND('',#215,.T.);
#254=FACE_BOUND('',#216,.T.);
#255=FACE_BOUND('',#217,.T.);
#256=FACE_BOUND('',#218,.T.);
#257=FACE_BOUND('',#219,.T.);
#258=FACE_BOUND('',#220,.T.);
#259=FACE_BOUND('',#221,.T.);
#260=FACE_BOUND('',#222,.T.);
#261=FACE_BOUND('',#223,.T.);
#262=FACE_BOUND('',#224,.T.);
#263=FACE_BOUND('',#225,.T.);
#264=FACE_BOUND('',#226,.T.);
#265=FACE_BOUND('',#227,.T.);
#266=FACE_BOUND('',#228,.T.);
#267=FACE_BOUND('',#229,.T.);
#268=FACE_BOUND('',#230,.T.);
#269=FACE_BOUND('',#231,.T.);
#270=FACE_BOUND('',#232,.T.);
#271=FACE_BOUND('',#233,.T.);
#272=FACE_BOUND('',#234,.T.);
#273=FACE_BOUND('',#235,.T.);
#274=FACE_BOUND('',#236,.T.);
#275=FACE_BOUND('',#237,.T.);
#276=FACE_BOUND('',#238,.T.);
#277=FACE_BOUND('',#239,.T.);
#278=FACE_BOUND('',#240,.T.);
#279=FACE_BOUND('',#241,.T.);
#280=FACE_BOUND('',#242,.T.);
#281=FACE_BOUND('',#243,.T.);
#282=FACE_BOUND('',#244,.T.);
#283=FACE_BOUND('',#245,.T.);
#284=FACE_BOUND('',#246,.T.);
#285=FACE_BOUND('',#247,.T.);
#286=FACE_BOUND('',#20,.T.);
#287=FACE_BOUND('',#248,.T.);
#288=PLANE('',#335);
#289=PLANE('',#343);
#290=PLANE('',#347);
#291=PLANE('',#354);
#292=PLANE('',#355);
#293=PLANE('',#356);
#294=PLANE('',#357);
#295=PLANE('',#358);
#296=PLANE('',#359);
#297=PLANE('',#360);
#298=PLANE('',#362);
#299=ADVANCED_FACE('',(#249,#250),#288,.F.);
#300=ADVANCED_FACE('',(#251,#252),#26,.F.);
#301=ADVANCED_FACE('',(#253,#254),#25,.T.);
#302=ADVANCED_FACE('',(#255,#256),#27,.F.);
#303=ADVANCED_FACE('',(#257,#258),#289,.F.);
#304=ADVANCED_FACE('',(#259,#260),#28,.T.);
#305=ADVANCED_FACE('',(#261,#262),#290,.F.);
#306=ADVANCED_FACE('',(#263,#264),#23,.T.);
#307=ADVANCED_FACE('',(#265,#266),#29,.F.);
#308=ADVANCED_FACE('',(#267),#24,.F.);
#309=ADVANCED_FACE('',(#268),#291,.F.);
#310=ADVANCED_FACE('',(#269),#292,.F.);
#311=ADVANCED_FACE('',(#270),#293,.F.);
#312=ADVANCED_FACE('',(#271),#294,.F.);
#313=ADVANCED_FACE('',(#272),#295,.F.);
#314=ADVANCED_FACE('',(#273),#296,.F.);
#315=ADVANCED_FACE('',(#274,#275),#297,.F.);
#316=ADVANCED_FACE('',(#276,#277),#298,.F.);
#317=ADVANCED_FACE('',(#278,#279),#30,.T.);
#318=ADVANCED_FACE('',(#280,#281),#21,.T.);
#319=ADVANCED_FACE('',(#282,#283),#31,.F.);
#320=ADVANCED_FACE('',(#284,#285),#22,.F.);
#321=ADVANCED_FACE('',(#286,#287),#32,.F.);
#322=CLOSED_SHELL('',(#299,#300,#301,#302,#303,#304,#305,#306,#307,#308,
#309,#310,#311,#312,#313,#314,#315,#316,#317,#318,#319,#320,#321));
#323=STYLED_ITEM('',(#324),#331);
#324=PRESENTATION_STYLE_ASSIGNMENT((#325));
#325=SURFACE_STYLE_USAGE(.BOTH.,#326);
#326=SURFACE_SIDE_STYLE('',(#327));
#327=SURFACE_STYLE_FILL_AREA(#328);
#328=FILL_AREA_STYLE('',(#329));
#329=FILL_AREA_STYLE_COLOUR('',#330);
#330=COLOUR_RGB('',0.689999997615814,0.689999997615814,0.689999997615814);
#331=MANIFOLD_SOLID_BREP('CRPA43-2Z',#322);
#332=SHAPE_DEFINITION_REPRESENTATION(#560,#333);
#333=SHAPE_REPRESENTATION('CRPA43-2Z',(#334),#555);
#334=AXIS2_PLACEMENT_3D('',#469,#373,#374);
#335=AXIS2_PLACEMENT_3D('',#470,#375,#376);
#336=AXIS2_PLACEMENT_3D('',#471,#377,#378);
#337=AXIS2_PLACEMENT_3D('',#485,#385,#386);
#338=AXIS2_PLACEMENT_3D('',#486,#387,#388);
#339=AXIS2_PLACEMENT_3D('',#488,#389,#390);
#340=AXIS2_PLACEMENT_3D('',#489,#391,#392);
#341=AXIS2_PLACEMENT_3D('',#491,#393,#394);
#342=AXIS2_PLACEMENT_3D('',#492,#395,#396);
#343=AXIS2_PLACEMENT_3D('',#494,#397,#398);
#344=AXIS2_PLACEMENT_3D('',#495,#399,#400);
#345=AXIS2_PLACEMENT_3D('',#497,#401,#402);
#346=AXIS2_PLACEMENT_3D('',#498,#403,#404);
#347=AXIS2_PLACEMENT_3D('',#500,#405,#406);
#348=AXIS2_PLACEMENT_3D('',#501,#407,#408);
#349=AXIS2_PLACEMENT_3D('',#503,#409,#410);
#350=AXIS2_PLACEMENT_3D('',#504,#411,#412);
#351=AXIS2_PLACEMENT_3D('',#506,#413,#414);
#352=AXIS2_PLACEMENT_3D('',#507,#415,#416);
#353=AXIS2_PLACEMENT_3D('',#509,#417,#418);
#354=AXIS2_PLACEMENT_3D('',#510,#419,#420);
#355=AXIS2_PLACEMENT_3D('',#516,#424,#425);
#356=AXIS2_PLACEMENT_3D('',#520,#428,#429);
#357=AXIS2_PLACEMENT_3D('',#524,#432,#433);
#358=AXIS2_PLACEMENT_3D('',#528,#436,#437);
#359=AXIS2_PLACEMENT_3D('',#532,#440,#441);
#360=AXIS2_PLACEMENT_3D('',#534,#443,#444);
#361=AXIS2_PLACEMENT_3D('',#535,#445,#446);
#362=AXIS2_PLACEMENT_3D('',#537,#447,#448);
#363=AXIS2_PLACEMENT_3D('',#538,#449,#450);
#364=AXIS2_PLACEMENT_3D('',#540,#451,#452);
#365=AXIS2_PLACEMENT_3D('',#542,#453,#454);
#366=AXIS2_PLACEMENT_3D('',#543,#455,#456);
#367=AXIS2_PLACEMENT_3D('',#545,#457,#458);
#368=AXIS2_PLACEMENT_3D('',#546,#459,#460);
#369=AXIS2_PLACEMENT_3D('',#547,#461,#462);
#370=AXIS2_PLACEMENT_3D('',#549,#463,#464);
#371=AXIS2_PLACEMENT_3D('',#550,#465,#466);
#372=AXIS2_PLACEMENT_3D('',#552,#467,#468);
#373=DIRECTION('',(0.,0.,1.));
#374=DIRECTION('',(1.,0.,0.));
#375=DIRECTION('',(1.,-3.72821230094039E-13,0.));
#376=DIRECTION('',(3.72821230094039E-13,1.,0.));
#377=DIRECTION('',(1.,-3.72821230094039E-13,0.));
#378=DIRECTION('',(3.72821230094039E-13,1.,0.));
#379=DIRECTION('',(3.22872656331601E-13,0.866025403784439,-0.5));
#380=DIRECTION('',(3.22872656331601E-13,0.866025403784439,0.5));
#381=DIRECTION('',(0.,0.,1.));
#382=DIRECTION('',(-3.22872656331601E-13,-0.866025403784439,0.5));
#383=DIRECTION('',(-3.22872656331601E-13,-0.866025403784439,-0.5));
#384=DIRECTION('',(0.,0.,-1.));
#385=DIRECTION('',(-1.,3.72821230094039E-13,0.));
#386=DIRECTION('',(-3.72821230094039E-13,-1.,0.));
#387=DIRECTION('',(1.,-3.72821230094039E-13,0.));
#388=DIRECTION('',(3.72821230094039E-13,1.,0.));
#389=DIRECTION('',(1.,-3.72821230094039E-13,0.));
#390=DIRECTION('',(3.72821230094039E-13,1.,0.));
#391=DIRECTION('',(1.,-3.72821230094039E-13,0.));
#392=DIRECTION('',(3.72821230094039E-13,1.,0.));
#393=DIRECTION('',(1.,-3.72821230094039E-13,0.));
#394=DIRECTION('',(3.72821230094039E-13,1.,0.));
#395=DIRECTION('',(1.,-3.72821230094039E-13,0.));
#396=DIRECTION('',(3.72821230094039E-13,1.,0.));
#397=DIRECTION('',(-1.,3.72821230094039E-13,0.));
#398=DIRECTION('',(-3.72821230094039E-13,-1.,0.));
#399=DIRECTION('',(1.,-3.72821230094039E-13,0.));
#400=DIRECTION('',(3.72821230094039E-13,1.,0.));
#401=DIRECTION('',(-1.,3.72821230094039E-13,0.));
#402=DIRECTION('',(-3.72821230094039E-13,-1.,0.));
#403=DIRECTION('',(1.,-3.72821230094039E-13,0.));
#404=DIRECTION('',(3.72821230094039E-13,1.,0.));
#405=DIRECTION('',(-1.,3.72821230094039E-13,0.));
#406=DIRECTION('',(-3.72821230094039E-13,-1.,0.));
#407=DIRECTION('',(1.,-3.72821230094039E-13,0.));
#408=DIRECTION('',(3.72821230094039E-13,1.,0.));
#409=DIRECTION('',(1.,-3.72821230094039E-13,0.));
#410=DIRECTION('',(3.72821230094039E-13,1.,0.));
#411=DIRECTION('',(1.,-3.72821230094039E-13,0.));
#412=DIRECTION('',(3.72821230094039E-13,1.,0.));
#413=DIRECTION('',(1.,-3.72821230094039E-13,0.));
#414=DIRECTION('',(3.72821230094039E-13,1.,0.));
#415=DIRECTION('',(1.,-3.72821230094039E-13,0.));
#416=DIRECTION('',(3.72821230094039E-13,1.,0.));
#417=DIRECTION('',(1.,-3.72821230094039E-13,0.));
#418=DIRECTION('',(3.72821230094039E-13,1.,0.));
#419=DIRECTION('',(0.,-0.5,-0.866025403784439));
#420=DIRECTION('',(0.,0.866025403784439,-0.5));
#421=DIRECTION('',(-1.,0.,0.));
#422=DIRECTION('',(-1.,0.,0.));
#423=DIRECTION('',(0.,-0.866025403784439,0.5));
#424=DIRECTION('',(0.,0.5,-0.866025403784439));
#425=DIRECTION('',(0.,0.866025403784439,0.5));
#426=DIRECTION('',(-1.,0.,0.));
#427=DIRECTION('',(0.,-0.866025403784438,-0.5));
#428=DIRECTION('',(0.,1.,0.));
#429=DIRECTION('',(0.,0.,1.));
#430=DIRECTION('',(-1.,0.,0.));
#431=DIRECTION('',(0.,0.,-1.));
#432=DIRECTION('',(0.,0.5,0.866025403784439));
#433=DIRECTION('',(0.,-0.866025403784439,0.5));
#434=DIRECTION('',(-1.,0.,0.));
#435=DIRECTION('',(0.,0.866025403784439,-0.5));
#436=DIRECTION('',(0.,-0.5,0.866025403784438));
#437=DIRECTION('',(0.,-0.866025403784439,-0.5));
#438=DIRECTION('',(-1.,0.,0.));
#439=DIRECTION('',(0.,0.866025403784438,0.5));
#440=DIRECTION('',(0.,-1.,0.));
#441=DIRECTION('',(0.,0.,-1.));
#442=DIRECTION('',(0.,0.,1.));
#443=DIRECTION('',(1.,0.,0.));
#444=DIRECTION('',(0.,0.,-1.));
#445=DIRECTION('',(1.,0.,0.));
#446=DIRECTION('',(0.,0.,-1.));
#447=DIRECTION('',(1.,0.,0.));
#448=DIRECTION('',(0.,0.,-1.));
#449=DIRECTION('',(1.,0.,0.));
#450=DIRECTION('',(0.,0.,-1.));
#451=DIRECTION('',(1.,3.00430279844883E-18,0.));
#452=DIRECTION('',(-3.00430279844883E-18,1.,0.));
#453=DIRECTION('',(1.,0.,0.));
#454=DIRECTION('',(0.,0.,-1.));
#455=DIRECTION('',(1.,0.,0.));
#456=DIRECTION('',(0.,0.,-1.));
#457=DIRECTION('',(1.,0.,0.));
#458=DIRECTION('',(0.,0.,-1.));
#459=DIRECTION('',(-1.,-3.00430279844883E-18,0.));
#460=DIRECTION('',(3.00430279844883E-18,-1.,0.));
#461=DIRECTION('',(1.,3.00430279844883E-18,0.));
#462=DIRECTION('',(-3.00430279844883E-18,1.,0.));
#463=DIRECTION('',(1.,3.00430279844883E-18,0.));
#464=DIRECTION('',(-3.00430279844883E-18,1.,0.));
#465=DIRECTION('',(1.,3.00430279844883E-18,0.));
#466=DIRECTION('',(-3.00430279844883E-18,1.,0.));
#467=DIRECTION('',(-1.,-3.00430279844883E-18,0.));
#468=DIRECTION('',(3.00430279844883E-18,-1.,0.));
#469=CARTESIAN_POINT('',(0.,0.,0.));
#470=CARTESIAN_POINT('',(7.24499999999967,-3.55271367789703E-15,0.));
#471=CARTESIAN_POINT('',(7.24499999999725,-3.55271367699283E-15,0.));
#472=CARTESIAN_POINT('',(7.2450000000021,13.,0.));
#473=CARTESIAN_POINT('',(7.24500000000094,3.40358983848622,5.89519052838329));
#474=CARTESIAN_POINT('',(7.24499999999967,-8.67361737988404E-16,7.86025403784439));
#475=CARTESIAN_POINT('',(7.24500000000247,7.5,3.53012701892219));
#476=CARTESIAN_POINT('',(7.24499999999841,-3.40358983848623,5.89519052838329));
#477=CARTESIAN_POINT('',(7.24499999999688,-7.5,3.53012701892219));
#478=CARTESIAN_POINT('',(7.24499999999688,-7.5,0.));
#479=CARTESIAN_POINT('',(7.24499999999688,-7.5,-5.13012701892219));
#480=CARTESIAN_POINT('',(7.24499999999815,-4.09641016151378,-7.09519052838329));
#481=CARTESIAN_POINT('',(7.24499999999967,1.73472347597681E-15,-9.46025403784438));
#482=CARTESIAN_POINT('',(7.2450000000012,4.09641016151377,-7.09519052838329));
#483=CARTESIAN_POINT('',(7.24500000000247,7.5,-5.13012701892219));
#484=CARTESIAN_POINT('',(7.24500000000247,7.5,0.));
#485=CARTESIAN_POINT('',(7.24499999999725,-3.55271367699283E-15,0.));
#486=CARTESIAN_POINT('',(6.99999999999436,8.77884876971258E-14,0.));
#487=CARTESIAN_POINT('',(7.,15.136470338879,0.));
#488=CARTESIAN_POINT('',(12.4949999999981,-1.96023752785379E-12,0.));
#489=CARTESIAN_POINT('',(17.9999999999944,-4.01324504333731E-12,0.));
#490=CARTESIAN_POINT('',(18.,15.1237686108328,0.));
#491=CARTESIAN_POINT('',(17.9999999999944,-4.01324504333731E-12,0.));
#492=CARTESIAN_POINT('',(17.7564565722256,-3.92244688301525E-12,0.));
#493=CARTESIAN_POINT('',(17.7564565722305,13.,0.));
#494=CARTESIAN_POINT('',(17.7564565722402,13.,0.));
#495=CARTESIAN_POINT('',(17.756456572245,-3.92244688302247E-12,0.));
#496=CARTESIAN_POINT('',(17.756456572248,7.9999999999956,0.));
#497=CARTESIAN_POINT('',(17.756456572245,-3.92244688302247E-12,0.));
#498=CARTESIAN_POINT('',(18.0064565722451,-4.01565219054601E-12,0.));
#499=CARTESIAN_POINT('',(18.006456572248,7.8003043397675,0.));
#500=CARTESIAN_POINT('',(18.0064565722461,7.8003043397675,0.));
#501=CARTESIAN_POINT('',(18.0064565722412,-4.01565219054458E-12,0.));
#502=CARTESIAN_POINT('',(18.0064565722434,5.75030433973175,0.));
#503=CARTESIAN_POINT('',(0.0864565722304526,2.60208521396521E-15,0.));
#504=CARTESIAN_POINT('',(18.8905945059937,-4.34527758257896E-12,0.));
#505=CARTESIAN_POINT('',(18.890594505994,0.772526095350143,0.));
#506=CARTESIAN_POINT('',(18.8905945059937,-4.34527758257896E-12,0.));
#507=CARTESIAN_POINT('',(18.4949758602268,-4.19778255241601E-12,0.));
#508=CARTESIAN_POINT('',(18.4949758602268,0.0872945004598314,0.));
#509=CARTESIAN_POINT('',(18.6914565722303,2.16433858682419E-14,0.));
#510=CARTESIAN_POINT('',(9.5,7.5,3.53012701892219));
#511=CARTESIAN_POINT('',(9.5,-8.88178419700125E-16,7.86025403784439));
#512=CARTESIAN_POINT('',(4.5,-8.88178419700125E-16,7.86025403784439));
#513=CARTESIAN_POINT('',(9.5,7.5,3.53012701892219));
#514=CARTESIAN_POINT('',(4.5,7.5,3.53012701892219));
#515=CARTESIAN_POINT('',(4.5,7.5,3.53012701892219));
#516=CARTESIAN_POINT('',(9.5,-8.88178419700125E-16,7.86025403784439));
#517=CARTESIAN_POINT('',(9.5,-7.5,3.53012701892219));
#518=CARTESIAN_POINT('',(4.5,-7.5,3.53012701892219));
#519=CARTESIAN_POINT('',(4.5,-8.88178419700125E-16,7.86025403784439));
#520=CARTESIAN_POINT('',(9.5,-7.5,3.53012701892219));
#521=CARTESIAN_POINT('',(9.5,-7.5,-5.13012701892219));
#522=CARTESIAN_POINT('',(4.5,-7.5,-5.13012701892219));
#523=CARTESIAN_POINT('',(4.5,-7.5,3.53012701892219));
#524=CARTESIAN_POINT('',(9.5,-7.5,-5.13012701892219));
#525=CARTESIAN_POINT('',(9.5,8.67361737988404E-16,-9.46025403784439));
#526=CARTESIAN_POINT('',(4.5,8.67361737988404E-16,-9.46025403784439));
#527=CARTESIAN_POINT('',(4.5,-7.5,-5.13012701892219));
#528=CARTESIAN_POINT('',(9.5,8.88178419700125E-16,-9.46025403784439));
#529=CARTESIAN_POINT('',(9.5,7.5,-5.13012701892219));
#530=CARTESIAN_POINT('',(4.5,7.5,-5.13012701892219));
#531=CARTESIAN_POINT('',(4.5,8.88178419700125E-16,-9.46025403784439));
#532=CARTESIAN_POINT('',(9.5,7.5,-5.13012701892219));
#533=CARTESIAN_POINT('',(4.5,7.5,-5.13012701892219));
#534=CARTESIAN_POINT('',(4.5,0.,0.));
#535=CARTESIAN_POINT('',(4.5,0.,-0.8));
#536=CARTESIAN_POINT('',(4.5,0.,-6.8));
#537=CARTESIAN_POINT('',(0.,0.,-0.8));
#538=CARTESIAN_POINT('',(0.,0.,-0.8));
#539=CARTESIAN_POINT('',(0.,0.,-6.1));
#540=CARTESIAN_POINT('',(0.,0.,-0.8));
#541=CARTESIAN_POINT('',(-9.01290839534648E-18,3.,-0.8));
#542=CARTESIAN_POINT('',(0.,0.,-0.8));
#543=CARTESIAN_POINT('',(0.7,0.,-0.8));
#544=CARTESIAN_POINT('',(0.7,0.,-6.8));
#545=CARTESIAN_POINT('',(8.,0.,-0.8));
#546=CARTESIAN_POINT('',(0.,0.,-0.8));
#547=CARTESIAN_POINT('',(0.5415,1.62682996536004E-18,-0.8));
#548=CARTESIAN_POINT('',(0.5415,2.4585,-0.8));
#549=CARTESIAN_POINT('',(18.4772158318793,5.55111512312578E-17,-0.8));
#550=CARTESIAN_POINT('',(17.,5.10731475736301E-17,-0.8));
#551=CARTESIAN_POINT('',(17.,2.4585,-0.8));
#552=CARTESIAN_POINT('',(17.,5.10731475736301E-17,-0.8));
#553=CARTESIAN_POINT('',(18.4772158318793,0.,-0.8));
#554=MECHANICAL_DESIGN_GEOMETRIC_PRESENTATION_REPRESENTATION('',(#323),
#555);
#555=(
GEOMETRIC_REPRESENTATION_CONTEXT(3)
GLOBAL_UNCERTAINTY_ASSIGNED_CONTEXT((#556))
GLOBAL_UNIT_ASSIGNED_CONTEXT((#559,#558,#557))
REPRESENTATION_CONTEXT('CRPA43-2Z','TOP_LEVEL_ASSEMBLY_PART')
);
#556=UNCERTAINTY_MEASURE_WITH_UNIT(LENGTH_MEASURE(0.005),#559,
'DISTANCE_ACCURACY_VALUE','Maximum Tolerance applied to model');
#557=(
NAMED_UNIT(*)
SI_UNIT($,.STERADIAN.)
SOLID_ANGLE_UNIT()
);
#558=(
NAMED_UNIT(*)
PLANE_ANGLE_UNIT()
SI_UNIT($,.RADIAN.)
);
#559=(
LENGTH_UNIT()
NAMED_UNIT(*)
SI_UNIT(.MILLI.,.METRE.)
);
#560=PRODUCT_DEFINITION_SHAPE('','',#561);
#561=PRODUCT_DEFINITION('','',#563,#562);
#562=PRODUCT_DEFINITION_CONTEXT('',#569,'design');
#563=PRODUCT_DEFINITION_FORMATION_WITH_SPECIFIED_SOURCE('','',#565,
 .NOT_KNOWN.);
#564=PRODUCT_RELATED_PRODUCT_CATEGORY('','',(#565));
#565=PRODUCT('CRPA43-2Z','CRPA43-2Z','CRPA43-2Z',(#567));
#566=PRODUCT_CATEGORY('','');
#567=PRODUCT_CONTEXT('',#569,'mechanical');
#568=APPLICATION_PROTOCOL_DEFINITION('international standard',
'automotive_design',2010,#569);
#569=APPLICATION_CONTEXT(
'core data for automotive mechanical design processes');
ENDSEC;
END-ISO-10303-21;
