ISO-10303-21;
HEADER;
/* Generated by software containing ST-Developer
 * from STEP Tools, Inc. (www.steptools.com) 
 */

FILE_DESCRIPTION(
/* description */ ('Abdeckkappe 80x20'),
/* implementation_level */ '2;1');

FILE_NAME(
/* name */ 
'T:\\Produktinformationen\\MT\\I40\\3D-Files I40\\Abdeckkappen\\251005
038 Abdeckkappe 80x20.stp',
/* time_stamp */ '2022-12-06T13:02:37+01:00',
/* author */ ('wheldmann'),
/* organization */ (''),
/* preprocessor_version */ 'ST-DEVELOPER v17.2',
/* originating_system */ 'Autodesk Inventor 2019',
/* authorisation */ '');

FILE_SCHEMA (('AUTOMOTIVE_DESIGN { 1 0 10303 214 3 1 1 }'));
ENDSEC;

DATA;
#10=MECHANICAL_DESIGN_GEOMETRIC_PRESENTATION_REPRESENTATION('',(#13),#493);
#11=SHAPE_REPRESENTATION_RELATIONSHIP('SRR','None',#500,#12);
#12=ADVANCED_BREP_SHAPE_REPRESENTATION('',(#14),#492);
#13=STYLED_ITEM('',(#509),#14);
#14=MANIFOLD_SOLID_BREP('Volumenk\X\F6rper2',#271);
#15=PLANE('',#311);
#16=PLANE('',#316);
#17=PLANE('',#317);
#18=PLANE('',#318);
#19=PLANE('',#321);
#20=PLANE('',#324);
#21=LINE('',#425,#41);
#22=LINE('',#428,#42);
#23=LINE('',#438,#43);
#24=LINE('',#441,#44);
#25=LINE('',#447,#45);
#26=LINE('',#448,#46);
#27=LINE('',#454,#47);
#28=LINE('',#455,#48);
#29=LINE('',#459,#49);
#30=LINE('',#462,#50);
#31=LINE('',#465,#51);
#32=LINE('',#468,#52);
#33=LINE('',#471,#53);
#34=LINE('',#472,#54);
#35=LINE('',#475,#55);
#36=LINE('',#476,#56);
#37=LINE('',#479,#57);
#38=LINE('',#480,#58);
#39=LINE('',#485,#59);
#40=LINE('',#486,#60);
#41=VECTOR('',#337,1.);
#42=VECTOR('',#340,1.);
#43=VECTOR('',#351,1.);
#44=VECTOR('',#354,1.);
#45=VECTOR('',#363,1.);
#46=VECTOR('',#364,1.);
#47=VECTOR('',#373,1.);
#48=VECTOR('',#374,1.);
#49=VECTOR('',#379,1.);
#50=VECTOR('',#382,1.);
#51=VECTOR('',#385,1.);
#52=VECTOR('',#388,1.);
#53=VECTOR('',#391,1.);
#54=VECTOR('',#392,1.);
#55=VECTOR('',#395,1.);
#56=VECTOR('',#396,1.);
#57=VECTOR('',#399,1.);
#58=VECTOR('',#400,1.);
#59=VECTOR('',#407,1.);
#60=VECTOR('',#408,1.);
#61=CYLINDRICAL_SURFACE('',#295,1.5);
#62=CYLINDRICAL_SURFACE('',#301,1.5);
#63=CYLINDRICAL_SURFACE('',#306,1.5);
#64=CYLINDRICAL_SURFACE('',#310,1.5);
#65=CYLINDRICAL_SURFACE('',#312,1.5);
#66=CYLINDRICAL_SURFACE('',#314,1.50000000000001);
#67=CYLINDRICAL_SURFACE('',#319,1.5);
#68=CYLINDRICAL_SURFACE('',#322,1.5);
#69=FACE_OUTER_BOUND('',#87,.T.);
#70=FACE_OUTER_BOUND('',#88,.T.);
#71=FACE_OUTER_BOUND('',#89,.T.);
#72=FACE_OUTER_BOUND('',#90,.T.);
#73=FACE_OUTER_BOUND('',#91,.T.);
#74=FACE_OUTER_BOUND('',#92,.T.);
#75=FACE_OUTER_BOUND('',#93,.T.);
#76=FACE_OUTER_BOUND('',#94,.T.);
#77=FACE_OUTER_BOUND('',#95,.T.);
#78=FACE_OUTER_BOUND('',#96,.T.);
#79=FACE_OUTER_BOUND('',#97,.T.);
#80=FACE_OUTER_BOUND('',#98,.T.);
#81=FACE_OUTER_BOUND('',#99,.T.);
#82=FACE_OUTER_BOUND('',#100,.T.);
#83=FACE_OUTER_BOUND('',#101,.T.);
#84=FACE_OUTER_BOUND('',#102,.T.);
#85=FACE_OUTER_BOUND('',#103,.T.);
#86=FACE_OUTER_BOUND('',#104,.T.);
#87=EDGE_LOOP('',(#177,#178,#179));
#88=EDGE_LOOP('',(#180,#181,#182,#183));
#89=EDGE_LOOP('',(#184,#185,#186));
#90=EDGE_LOOP('',(#187,#188,#189,#190));
#91=EDGE_LOOP('',(#191,#192,#193));
#92=EDGE_LOOP('',(#194,#195,#196,#197));
#93=EDGE_LOOP('',(#198,#199,#200));
#94=EDGE_LOOP('',(#201,#202,#203,#204));
#95=EDGE_LOOP('',(#205,#206,#207,#208));
#96=EDGE_LOOP('',(#209,#210,#211,#212));
#97=EDGE_LOOP('',(#213,#214,#215,#216));
#98=EDGE_LOOP('',(#217,#218,#219,#220));
#99=EDGE_LOOP('',(#221,#222,#223,#224));
#100=EDGE_LOOP('',(#225,#226,#227,#228));
#101=EDGE_LOOP('',(#229,#230,#231,#232));
#102=EDGE_LOOP('',(#233,#234,#235,#236));
#103=EDGE_LOOP('',(#237,#238,#239,#240));
#104=EDGE_LOOP('',(#241,#242,#243,#244,#245,#246,#247,#248));
#105=CIRCLE('',#292,1.5);
#106=CIRCLE('',#293,1.5);
#107=CIRCLE('',#294,1.5);
#108=CIRCLE('',#296,1.5);
#109=CIRCLE('',#298,1.5);
#110=CIRCLE('',#299,1.5);
#111=CIRCLE('',#300,1.50000000000001);
#112=CIRCLE('',#302,1.5);
#113=CIRCLE('',#304,1.5);
#114=CIRCLE('',#305,1.5);
#115=CIRCLE('',#308,1.5);
#116=CIRCLE('',#309,1.5);
#117=CIRCLE('',#313,1.5);
#118=CIRCLE('',#315,1.50000000000001);
#119=CIRCLE('',#320,1.5);
#120=CIRCLE('',#323,1.5);
#121=VERTEX_POINT('',#417);
#122=VERTEX_POINT('',#418);
#123=VERTEX_POINT('',#420);
#124=VERTEX_POINT('',#424);
#125=VERTEX_POINT('',#426);
#126=VERTEX_POINT('',#430);
#127=VERTEX_POINT('',#431);
#128=VERTEX_POINT('',#433);
#129=VERTEX_POINT('',#437);
#130=VERTEX_POINT('',#439);
#131=VERTEX_POINT('',#443);
#132=VERTEX_POINT('',#450);
#133=VERTEX_POINT('',#458);
#134=VERTEX_POINT('',#460);
#135=VERTEX_POINT('',#464);
#136=VERTEX_POINT('',#466);
#137=VERTEX_POINT('',#470);
#138=VERTEX_POINT('',#474);
#139=VERTEX_POINT('',#478);
#140=VERTEX_POINT('',#484);
#141=EDGE_CURVE('',#121,#122,#105,.T.);
#142=EDGE_CURVE('',#123,#121,#106,.T.);
#143=EDGE_CURVE('',#122,#123,#107,.T.);
#144=EDGE_CURVE('',#124,#122,#21,.T.);
#145=EDGE_CURVE('',#125,#124,#108,.T.);
#146=EDGE_CURVE('',#121,#125,#22,.T.);
#147=EDGE_CURVE('',#126,#127,#109,.T.);
#148=EDGE_CURVE('',#128,#126,#110,.T.);
#149=EDGE_CURVE('',#127,#128,#111,.T.);
#150=EDGE_CURVE('',#129,#127,#23,.T.);
#151=EDGE_CURVE('',#130,#129,#112,.T.);
#152=EDGE_CURVE('',#126,#130,#24,.T.);
#153=EDGE_CURVE('',#131,#125,#113,.T.);
#154=EDGE_CURVE('',#131,#124,#114,.T.);
#155=EDGE_CURVE('',#125,#126,#25,.T.);
#156=EDGE_CURVE('',#128,#131,#26,.T.);
#157=EDGE_CURVE('',#132,#130,#115,.T.);
#158=EDGE_CURVE('',#132,#129,#116,.T.);
#159=EDGE_CURVE('',#130,#121,#27,.T.);
#160=EDGE_CURVE('',#123,#132,#28,.T.);
#161=EDGE_CURVE('',#133,#123,#29,.T.);
#162=EDGE_CURVE('',#133,#134,#117,.T.);
#163=EDGE_CURVE('',#134,#122,#30,.T.);
#164=EDGE_CURVE('',#135,#128,#31,.T.);
#165=EDGE_CURVE('',#135,#136,#118,.T.);
#166=EDGE_CURVE('',#136,#127,#32,.T.);
#167=EDGE_CURVE('',#134,#137,#33,.T.);
#168=EDGE_CURVE('',#137,#124,#34,.T.);
#169=EDGE_CURVE('',#136,#138,#35,.T.);
#170=EDGE_CURVE('',#138,#129,#36,.T.);
#171=EDGE_CURVE('',#139,#132,#37,.T.);
#172=EDGE_CURVE('',#139,#133,#38,.T.);
#173=EDGE_CURVE('',#138,#139,#119,.T.);
#174=EDGE_CURVE('',#140,#131,#39,.T.);
#175=EDGE_CURVE('',#140,#135,#40,.T.);
#176=EDGE_CURVE('',#137,#140,#120,.T.);
#177=ORIENTED_EDGE('',*,*,#141,.F.);
#178=ORIENTED_EDGE('',*,*,#142,.F.);
#179=ORIENTED_EDGE('',*,*,#143,.F.);
#180=ORIENTED_EDGE('',*,*,#141,.T.);
#181=ORIENTED_EDGE('',*,*,#144,.F.);
#182=ORIENTED_EDGE('',*,*,#145,.F.);
#183=ORIENTED_EDGE('',*,*,#146,.F.);
#184=ORIENTED_EDGE('',*,*,#147,.F.);
#185=ORIENTED_EDGE('',*,*,#148,.F.);
#186=ORIENTED_EDGE('',*,*,#149,.F.);
#187=ORIENTED_EDGE('',*,*,#147,.T.);
#188=ORIENTED_EDGE('',*,*,#150,.F.);
#189=ORIENTED_EDGE('',*,*,#151,.F.);
#190=ORIENTED_EDGE('',*,*,#152,.F.);
#191=ORIENTED_EDGE('',*,*,#153,.T.);
#192=ORIENTED_EDGE('',*,*,#145,.T.);
#193=ORIENTED_EDGE('',*,*,#154,.F.);
#194=ORIENTED_EDGE('',*,*,#148,.T.);
#195=ORIENTED_EDGE('',*,*,#155,.F.);
#196=ORIENTED_EDGE('',*,*,#153,.F.);
#197=ORIENTED_EDGE('',*,*,#156,.F.);
#198=ORIENTED_EDGE('',*,*,#157,.T.);
#199=ORIENTED_EDGE('',*,*,#151,.T.);
#200=ORIENTED_EDGE('',*,*,#158,.F.);
#201=ORIENTED_EDGE('',*,*,#142,.T.);
#202=ORIENTED_EDGE('',*,*,#159,.F.);
#203=ORIENTED_EDGE('',*,*,#157,.F.);
#204=ORIENTED_EDGE('',*,*,#160,.F.);
#205=ORIENTED_EDGE('',*,*,#159,.T.);
#206=ORIENTED_EDGE('',*,*,#146,.T.);
#207=ORIENTED_EDGE('',*,*,#155,.T.);
#208=ORIENTED_EDGE('',*,*,#152,.T.);
#209=ORIENTED_EDGE('',*,*,#143,.T.);
#210=ORIENTED_EDGE('',*,*,#161,.F.);
#211=ORIENTED_EDGE('',*,*,#162,.T.);
#212=ORIENTED_EDGE('',*,*,#163,.T.);
#213=ORIENTED_EDGE('',*,*,#149,.T.);
#214=ORIENTED_EDGE('',*,*,#164,.F.);
#215=ORIENTED_EDGE('',*,*,#165,.T.);
#216=ORIENTED_EDGE('',*,*,#166,.T.);
#217=ORIENTED_EDGE('',*,*,#144,.T.);
#218=ORIENTED_EDGE('',*,*,#163,.F.);
#219=ORIENTED_EDGE('',*,*,#167,.T.);
#220=ORIENTED_EDGE('',*,*,#168,.T.);
#221=ORIENTED_EDGE('',*,*,#150,.T.);
#222=ORIENTED_EDGE('',*,*,#166,.F.);
#223=ORIENTED_EDGE('',*,*,#169,.T.);
#224=ORIENTED_EDGE('',*,*,#170,.T.);
#225=ORIENTED_EDGE('',*,*,#160,.T.);
#226=ORIENTED_EDGE('',*,*,#171,.F.);
#227=ORIENTED_EDGE('',*,*,#172,.T.);
#228=ORIENTED_EDGE('',*,*,#161,.T.);
#229=ORIENTED_EDGE('',*,*,#158,.T.);
#230=ORIENTED_EDGE('',*,*,#170,.F.);
#231=ORIENTED_EDGE('',*,*,#173,.T.);
#232=ORIENTED_EDGE('',*,*,#171,.T.);
#233=ORIENTED_EDGE('',*,*,#156,.T.);
#234=ORIENTED_EDGE('',*,*,#174,.F.);
#235=ORIENTED_EDGE('',*,*,#175,.T.);
#236=ORIENTED_EDGE('',*,*,#164,.T.);
#237=ORIENTED_EDGE('',*,*,#154,.T.);
#238=ORIENTED_EDGE('',*,*,#168,.F.);
#239=ORIENTED_EDGE('',*,*,#176,.T.);
#240=ORIENTED_EDGE('',*,*,#174,.T.);
#241=ORIENTED_EDGE('',*,*,#162,.F.);
#242=ORIENTED_EDGE('',*,*,#172,.F.);
#243=ORIENTED_EDGE('',*,*,#173,.F.);
#244=ORIENTED_EDGE('',*,*,#169,.F.);
#245=ORIENTED_EDGE('',*,*,#165,.F.);
#246=ORIENTED_EDGE('',*,*,#175,.F.);
#247=ORIENTED_EDGE('',*,*,#176,.F.);
#248=ORIENTED_EDGE('',*,*,#167,.F.);
#249=SPHERICAL_SURFACE('',#291,1.5);
#250=SPHERICAL_SURFACE('',#297,1.5);
#251=SPHERICAL_SURFACE('',#303,1.5);
#252=SPHERICAL_SURFACE('',#307,1.5);
#253=ADVANCED_FACE('',(#69),#249,.T.);
#254=ADVANCED_FACE('',(#70),#61,.T.);
#255=ADVANCED_FACE('',(#71),#250,.T.);
#256=ADVANCED_FACE('',(#72),#62,.T.);
#257=ADVANCED_FACE('',(#73),#251,.T.);
#258=ADVANCED_FACE('',(#74),#63,.T.);
#259=ADVANCED_FACE('',(#75),#252,.T.);
#260=ADVANCED_FACE('',(#76),#64,.T.);
#261=ADVANCED_FACE('',(#77),#15,.T.);
#262=ADVANCED_FACE('',(#78),#65,.T.);
#263=ADVANCED_FACE('',(#79),#66,.T.);
#264=ADVANCED_FACE('',(#80),#16,.T.);
#265=ADVANCED_FACE('',(#81),#17,.T.);
#266=ADVANCED_FACE('',(#82),#18,.T.);
#267=ADVANCED_FACE('',(#83),#67,.T.);
#268=ADVANCED_FACE('',(#84),#19,.T.);
#269=ADVANCED_FACE('',(#85),#68,.T.);
#270=ADVANCED_FACE('',(#86),#20,.F.);
#271=CLOSED_SHELL('',(#253,#254,#255,#256,#257,#258,#259,#260,#261,#262,
#263,#264,#265,#266,#267,#268,#269,#270));
#272=DERIVED_UNIT_ELEMENT(#274,1.);
#273=DERIVED_UNIT_ELEMENT(#495,3.);
#274=(
MASS_UNIT()
NAMED_UNIT(*)
SI_UNIT($,.GRAM.)
);
#275=DERIVED_UNIT((#272,#273));
#276=MEASURE_REPRESENTATION_ITEM('density measure',
POSITIVE_RATIO_MEASURE(1.36),#275);
#277=PROPERTY_DEFINITION_REPRESENTATION(#282,#279);
#278=PROPERTY_DEFINITION_REPRESENTATION(#283,#280);
#279=REPRESENTATION('material name',(#281),#492);
#280=REPRESENTATION('density',(#276),#492);
#281=DESCRIPTIVE_REPRESENTATION_ITEM('PA glasfaserverst\X\E4rkt',
'PA glasfaserverst\X\E4rkt');
#282=PROPERTY_DEFINITION('material property','material name',#502);
#283=PROPERTY_DEFINITION('material property','density of part',#502);
#284=DATE_TIME_ROLE('creation_date');
#285=APPLIED_DATE_AND_TIME_ASSIGNMENT(#286,#284,(#502));
#286=DATE_AND_TIME(#287,#288);
#287=CALENDAR_DATE(2022,13,6);
#288=LOCAL_TIME(9,54,50.,#289);
#289=COORDINATED_UNIVERSAL_TIME_OFFSET(0,0,.BEHIND.);
#290=AXIS2_PLACEMENT_3D('placement',#415,#325,#326);
#291=AXIS2_PLACEMENT_3D('',#416,#327,#328);
#292=AXIS2_PLACEMENT_3D('',#419,#329,#330);
#293=AXIS2_PLACEMENT_3D('',#421,#331,#332);
#294=AXIS2_PLACEMENT_3D('',#422,#333,#334);
#295=AXIS2_PLACEMENT_3D('',#423,#335,#336);
#296=AXIS2_PLACEMENT_3D('',#427,#338,#339);
#297=AXIS2_PLACEMENT_3D('',#429,#341,#342);
#298=AXIS2_PLACEMENT_3D('',#432,#343,#344);
#299=AXIS2_PLACEMENT_3D('',#434,#345,#346);
#300=AXIS2_PLACEMENT_3D('',#435,#347,#348);
#301=AXIS2_PLACEMENT_3D('',#436,#349,#350);
#302=AXIS2_PLACEMENT_3D('',#440,#352,#353);
#303=AXIS2_PLACEMENT_3D('',#442,#355,#356);
#304=AXIS2_PLACEMENT_3D('',#444,#357,#358);
#305=AXIS2_PLACEMENT_3D('',#445,#359,#360);
#306=AXIS2_PLACEMENT_3D('',#446,#361,#362);
#307=AXIS2_PLACEMENT_3D('',#449,#365,#366);
#308=AXIS2_PLACEMENT_3D('',#451,#367,#368);
#309=AXIS2_PLACEMENT_3D('',#452,#369,#370);
#310=AXIS2_PLACEMENT_3D('',#453,#371,#372);
#311=AXIS2_PLACEMENT_3D('',#456,#375,#376);
#312=AXIS2_PLACEMENT_3D('',#457,#377,#378);
#313=AXIS2_PLACEMENT_3D('',#461,#380,#381);
#314=AXIS2_PLACEMENT_3D('',#463,#383,#384);
#315=AXIS2_PLACEMENT_3D('',#467,#386,#387);
#316=AXIS2_PLACEMENT_3D('',#469,#389,#390);
#317=AXIS2_PLACEMENT_3D('',#473,#393,#394);
#318=AXIS2_PLACEMENT_3D('',#477,#397,#398);
#319=AXIS2_PLACEMENT_3D('',#481,#401,#402);
#320=AXIS2_PLACEMENT_3D('',#482,#403,#404);
#321=AXIS2_PLACEMENT_3D('',#483,#405,#406);
#322=AXIS2_PLACEMENT_3D('',#487,#409,#410);
#323=AXIS2_PLACEMENT_3D('',#488,#411,#412);
#324=AXIS2_PLACEMENT_3D('',#489,#413,#414);
#325=DIRECTION('axis',(0.,0.,1.));
#326=DIRECTION('refdir',(1.,0.,0.));
#327=DIRECTION('center_axis',(0.,0.,1.));
#328=DIRECTION('ref_axis',(0.,-1.,0.));
#329=DIRECTION('center_axis',(0.,1.,0.));
#330=DIRECTION('ref_axis',(0.,0.,1.));
#331=DIRECTION('center_axis',(-1.,0.,0.));
#332=DIRECTION('ref_axis',(0.,-1.,-4.44089209850063E-16));
#333=DIRECTION('center_axis',(0.,0.,-1.));
#334=DIRECTION('ref_axis',(-5.9211894646675E-16,-1.,0.));
#335=DIRECTION('center_axis',(0.,1.,0.));
#336=DIRECTION('ref_axis',(-4.44089209850063E-16,0.,1.));
#337=DIRECTION('',(0.,-1.,0.));
#338=DIRECTION('center_axis',(0.,1.,0.));
#339=DIRECTION('ref_axis',(0.,0.,1.));
#340=DIRECTION('',(0.,1.,0.));
#341=DIRECTION('center_axis',(0.,0.,1.));
#342=DIRECTION('ref_axis',(0.,1.,0.));
#343=DIRECTION('center_axis',(0.,-1.,0.));
#344=DIRECTION('ref_axis',(0.,0.,1.));
#345=DIRECTION('center_axis',(1.,0.,0.));
#346=DIRECTION('ref_axis',(0.,1.,-4.44089209850063E-16));
#347=DIRECTION('center_axis',(0.,0.,-1.));
#348=DIRECTION('ref_axis',(-1.42108547152019E-14,1.,0.));
#349=DIRECTION('center_axis',(0.,-1.,0.));
#350=DIRECTION('ref_axis',(4.44089209850063E-16,0.,1.));
#351=DIRECTION('',(0.,1.,0.));
#352=DIRECTION('center_axis',(0.,-1.,0.));
#353=DIRECTION('ref_axis',(0.,0.,1.));
#354=DIRECTION('',(0.,-1.,0.));
#355=DIRECTION('center_axis',(0.,0.,1.));
#356=DIRECTION('ref_axis',(1.,0.,0.));
#357=DIRECTION('center_axis',(1.,0.,0.));
#358=DIRECTION('ref_axis',(0.,1.,-4.44089209850063E-16));
#359=DIRECTION('center_axis',(0.,0.,-1.));
#360=DIRECTION('ref_axis',(1.,0.,0.));
#361=DIRECTION('center_axis',(1.,0.,0.));
#362=DIRECTION('ref_axis',(0.,1.,-4.44089209850063E-16));
#363=DIRECTION('',(-1.,0.,0.));
#364=DIRECTION('',(1.,0.,0.));
#365=DIRECTION('center_axis',(0.,0.,1.));
#366=DIRECTION('ref_axis',(-1.,0.,0.));
#367=DIRECTION('center_axis',(-1.,0.,0.));
#368=DIRECTION('ref_axis',(0.,-1.,-4.44089209850063E-16));
#369=DIRECTION('center_axis',(0.,0.,-1.));
#370=DIRECTION('ref_axis',(-1.,2.22044604925032E-15,0.));
#371=DIRECTION('center_axis',(-1.,0.,0.));
#372=DIRECTION('ref_axis',(0.,-1.,-4.44089209850063E-16));
#373=DIRECTION('',(1.,0.,0.));
#374=DIRECTION('',(-1.,0.,0.));
#375=DIRECTION('center_axis',(0.,0.,1.));
#376=DIRECTION('ref_axis',(0.,1.,0.));
#377=DIRECTION('center_axis',(0.,0.,1.));
#378=DIRECTION('ref_axis',(-5.9211894646675E-16,-1.,0.));
#379=DIRECTION('',(0.,0.,1.));
#380=DIRECTION('center_axis',(0.,0.,1.));
#381=DIRECTION('ref_axis',(-5.9211894646675E-16,-1.,0.));
#382=DIRECTION('',(0.,0.,1.));
#383=DIRECTION('center_axis',(0.,0.,1.));
#384=DIRECTION('ref_axis',(-1.42108547152019E-14,1.,0.));
#385=DIRECTION('',(0.,0.,1.));
#386=DIRECTION('center_axis',(0.,0.,1.));
#387=DIRECTION('ref_axis',(-1.42108547152019E-14,1.,0.));
#388=DIRECTION('',(0.,0.,1.));
#389=DIRECTION('center_axis',(1.,0.,0.));
#390=DIRECTION('ref_axis',(0.,1.,0.));
#391=DIRECTION('',(0.,1.,0.));
#392=DIRECTION('',(0.,0.,1.));
#393=DIRECTION('center_axis',(-1.,0.,0.));
#394=DIRECTION('ref_axis',(0.,-1.,0.));
#395=DIRECTION('',(0.,-1.,0.));
#396=DIRECTION('',(0.,0.,1.));
#397=DIRECTION('center_axis',(0.,-1.,0.));
#398=DIRECTION('ref_axis',(1.,0.,0.));
#399=DIRECTION('',(0.,0.,1.));
#400=DIRECTION('',(1.,0.,0.));
#401=DIRECTION('center_axis',(0.,0.,1.));
#402=DIRECTION('ref_axis',(-1.,2.22044604925032E-15,0.));
#403=DIRECTION('center_axis',(0.,0.,1.));
#404=DIRECTION('ref_axis',(-1.,2.22044604925032E-15,0.));
#405=DIRECTION('center_axis',(0.,1.,0.));
#406=DIRECTION('ref_axis',(-1.,0.,0.));
#407=DIRECTION('',(0.,0.,1.));
#408=DIRECTION('',(-1.,0.,0.));
#409=DIRECTION('center_axis',(0.,0.,1.));
#410=DIRECTION('ref_axis',(1.,0.,0.));
#411=DIRECTION('center_axis',(0.,0.,1.));
#412=DIRECTION('ref_axis',(1.,0.,0.));
#413=DIRECTION('center_axis',(0.,0.,1.));
#414=DIRECTION('ref_axis',(0.,1.,0.));
#415=CARTESIAN_POINT('',(0.,0.,0.));
#416=CARTESIAN_POINT('Origin',(8.5,-38.5,1.));
#417=CARTESIAN_POINT('',(8.5,-38.5,2.5));
#418=CARTESIAN_POINT('',(10.,-38.5,1.));
#419=CARTESIAN_POINT('Origin',(8.5,-38.5,1.));
#420=CARTESIAN_POINT('',(8.5,-40.,1.));
#421=CARTESIAN_POINT('Origin',(8.5,-38.5,1.));
#422=CARTESIAN_POINT('Origin',(8.5,-38.5,1.));
#423=CARTESIAN_POINT('Origin',(8.5,-42.,1.));
#424=CARTESIAN_POINT('',(10.,38.5,1.));
#425=CARTESIAN_POINT('',(10.,-21.,1.));
#426=CARTESIAN_POINT('',(8.5,38.5,2.5));
#427=CARTESIAN_POINT('Origin',(8.5,38.5,1.));
#428=CARTESIAN_POINT('',(8.5,-21.,2.5));
#429=CARTESIAN_POINT('Origin',(-8.5,38.5,1.));
#430=CARTESIAN_POINT('',(-8.5,38.5,2.5));
#431=CARTESIAN_POINT('',(-9.99999999999999,38.5,1.));
#432=CARTESIAN_POINT('Origin',(-8.5,38.5,1.));
#433=CARTESIAN_POINT('',(-8.49999999999998,40.,1.));
#434=CARTESIAN_POINT('Origin',(-8.5,38.5,1.));
#435=CARTESIAN_POINT('Origin',(-8.49999999999998,38.5,1.));
#436=CARTESIAN_POINT('Origin',(-8.5,42.,1.));
#437=CARTESIAN_POINT('',(-10.,-38.5,1.));
#438=CARTESIAN_POINT('',(-10.,21.,1.));
#439=CARTESIAN_POINT('',(-8.5,-38.5,2.5));
#440=CARTESIAN_POINT('Origin',(-8.5,-38.5,1.));
#441=CARTESIAN_POINT('',(-8.5,21.,2.5));
#442=CARTESIAN_POINT('Origin',(8.5,38.5,1.));
#443=CARTESIAN_POINT('',(8.5,40.,1.));
#444=CARTESIAN_POINT('Origin',(8.5,38.5,1.));
#445=CARTESIAN_POINT('Origin',(8.5,38.5,1.));
#446=CARTESIAN_POINT('Origin',(-12.,38.5,1.));
#447=CARTESIAN_POINT('',(-6.,38.5,2.5));
#448=CARTESIAN_POINT('',(-6.,40.,1.));
#449=CARTESIAN_POINT('Origin',(-8.5,-38.5,1.));
#450=CARTESIAN_POINT('',(-8.5,-40.,1.));
#451=CARTESIAN_POINT('Origin',(-8.5,-38.5,1.));
#452=CARTESIAN_POINT('Origin',(-8.5,-38.5,1.));
#453=CARTESIAN_POINT('Origin',(12.,-38.5,1.));
#454=CARTESIAN_POINT('',(6.,-38.5,2.5));
#455=CARTESIAN_POINT('',(6.,-40.,1.));
#456=CARTESIAN_POINT('Origin',(1.77635683940025E-15,-7.105427357601E-15,
2.5));
#457=CARTESIAN_POINT('Origin',(8.5,-38.5,0.));
#458=CARTESIAN_POINT('',(8.5,-40.,0.));
#459=CARTESIAN_POINT('',(8.5,-40.,0.));
#460=CARTESIAN_POINT('',(10.,-38.5,0.));
#461=CARTESIAN_POINT('Origin',(8.5,-38.5,0.));
#462=CARTESIAN_POINT('',(10.,-38.5,0.));
#463=CARTESIAN_POINT('Origin',(-8.49999999999998,38.5,0.));
#464=CARTESIAN_POINT('',(-8.5,40.,0.));
#465=CARTESIAN_POINT('',(-8.5,40.,0.));
#466=CARTESIAN_POINT('',(-9.99999999999999,38.5,0.));
#467=CARTESIAN_POINT('Origin',(-8.49999999999998,38.5,0.));
#468=CARTESIAN_POINT('',(-9.99999999999999,38.5,0.));
#469=CARTESIAN_POINT('Origin',(10.,0.,0.));
#470=CARTESIAN_POINT('',(10.,38.5,0.));
#471=CARTESIAN_POINT('',(10.,-38.5,0.));
#472=CARTESIAN_POINT('',(10.,38.5,0.));
#473=CARTESIAN_POINT('Origin',(-10.,0.,0.));
#474=CARTESIAN_POINT('',(-10.,-38.5,0.));
#475=CARTESIAN_POINT('',(-10.,38.5,0.));
#476=CARTESIAN_POINT('',(-10.,-38.5,0.));
#477=CARTESIAN_POINT('Origin',(0.,-40.,0.));
#478=CARTESIAN_POINT('',(-8.5,-40.,0.));
#479=CARTESIAN_POINT('',(-8.5,-40.,0.));
#480=CARTESIAN_POINT('',(-8.5,-40.,0.));
#481=CARTESIAN_POINT('Origin',(-8.5,-38.5,0.));
#482=CARTESIAN_POINT('Origin',(-8.5,-38.5,0.));
#483=CARTESIAN_POINT('Origin',(0.,40.,0.));
#484=CARTESIAN_POINT('',(8.5,40.,0.));
#485=CARTESIAN_POINT('',(8.5,40.,0.));
#486=CARTESIAN_POINT('',(8.5,40.,0.));
#487=CARTESIAN_POINT('Origin',(8.5,38.5,0.));
#488=CARTESIAN_POINT('Origin',(8.5,38.5,0.));
#489=CARTESIAN_POINT('Origin',(1.77635683940025E-15,0.,0.));
#490=UNCERTAINTY_MEASURE_WITH_UNIT(LENGTH_MEASURE(0.01),#494,
'DISTANCE_ACCURACY_VALUE',
'Maximum model space distance between geometric entities at asserted c
onnectivities');
#491=UNCERTAINTY_MEASURE_WITH_UNIT(LENGTH_MEASURE(0.01),#494,
'DISTANCE_ACCURACY_VALUE',
'Maximum model space distance between geometric entities at asserted c
onnectivities');
#492=(
GEOMETRIC_REPRESENTATION_CONTEXT(3)
GLOBAL_UNCERTAINTY_ASSIGNED_CONTEXT((#490))
GLOBAL_UNIT_ASSIGNED_CONTEXT((#494,#496,#497))
REPRESENTATION_CONTEXT('','3D')
);
#493=(
GEOMETRIC_REPRESENTATION_CONTEXT(3)
GLOBAL_UNCERTAINTY_ASSIGNED_CONTEXT((#491))
GLOBAL_UNIT_ASSIGNED_CONTEXT((#494,#496,#497))
REPRESENTATION_CONTEXT('','3D')
);
#494=(
LENGTH_UNIT()
NAMED_UNIT(*)
SI_UNIT(.MILLI.,.METRE.)
);
#495=(
LENGTH_UNIT()
NAMED_UNIT(*)
SI_UNIT(.CENTI.,.METRE.)
);
#496=(
NAMED_UNIT(*)
PLANE_ANGLE_UNIT()
SI_UNIT($,.RADIAN.)
);
#497=(
NAMED_UNIT(*)
SI_UNIT($,.STERADIAN.)
SOLID_ANGLE_UNIT()
);
#498=SHAPE_DEFINITION_REPRESENTATION(#499,#500);
#499=PRODUCT_DEFINITION_SHAPE('',$,#502);
#500=SHAPE_REPRESENTATION('',(#290),#492);
#501=PRODUCT_DEFINITION_CONTEXT('part definition',#506,'design');
#502=PRODUCT_DEFINITION('251005038','251005038 Abdeckkappe 80x20',#503,
#501);
#503=PRODUCT_DEFINITION_FORMATION('',$,#508);
#504=PRODUCT_RELATED_PRODUCT_CATEGORY('251005038 Abdeckkappe 80x20',
'251005038 Abdeckkappe 80x20',(#508));
#505=APPLICATION_PROTOCOL_DEFINITION('international standard',
'automotive_design',2009,#506);
#506=APPLICATION_CONTEXT(
'Core Data for Automotive Mechanical Design Process');
#507=PRODUCT_CONTEXT('part definition',#506,'mechanical');
#508=PRODUCT('251005038','251005038 Abdeckkappe 80x20',
'Abdeckkappe 80x20',(#507));
#509=PRESENTATION_STYLE_ASSIGNMENT((#510));
#510=SURFACE_STYLE_USAGE(.BOTH.,#513);
#511=SURFACE_STYLE_RENDERING_WITH_PROPERTIES($,#517,(#512));
#512=SURFACE_STYLE_TRANSPARENT(0.);
#513=SURFACE_SIDE_STYLE('',(#514,#511));
#514=SURFACE_STYLE_FILL_AREA(#515);
#515=FILL_AREA_STYLE('',(#516));
#516=FILL_AREA_STYLE_COLOUR('',#517);
#517=COLOUR_RGB('',0.,0.,0.);
ENDSEC;
END-ISO-10303-21;
